TAB

            I just figured out the very first part of this, if you can figure out more copy this and 
post more to it, but I just thought Id give someone a start

Sinners
Destroy The Runner
Sinners: B Side

Drop C


-----------------------------------|
-----------------------------------|
-----------------------------------|
-----------------------------------|
-/0-----8p7------------------------|
-/0-0-0-----7h8-0-0-5h7-8p7--------|

--------------------------------|
--------------------------------|
--------------------------------|
-----------------10-8-7h8p7-----|
-----8p7--------------------8---|
-0-0-----7h8-0-0----------------|

-----------------------------------|
-----------------------------------|
-----------------------------------|
-----------------------------------|
-----8p7---------------------------|
-0-0-----7h8-0-0-5h7-8p7-----------|

From what I can tell the next part uses a variation of what I have already done    

Added On December 16th, 2013

SHARE

Comments

blog comments powered by Disqus

ADVERTISEMENT