Dethklok Tabs

Bloodlines

1 versions

TAB

            "Bloodlines" by Dethklok
Length-3:30
The Dethalbum II
C Standard (C F Bb Eb G C)

Tabbed by Osiris12

Things I Need:

- I'm missing some leads, I know, but I can't make them out.
  Some of the leads I'm just not able to figure out or do:
  -1:16-1:19
  -2:31-2:39
  -2:57-3:01 and
  -3:05-3:10

- This is my first tab and I had to do it on a broken guitar, 
  so I didn't have all of the strings needed and had to improvise.
- I believe this is, for the most part, correct. Maybe 85-90%. 
  But, any !constructive! criticism or help on those missing parts 
  and some I may have completely missed or messed up are welcome.
- killswitch916@yahoo.com is my e-mail so send me a shout if you've 
  got something to say.

[Riff 1a]
|------------------|
|------------------|
|------------------|
|------------------|
|----8--7b---------|
|-0----------8-7-6-|

[Riff 1b]
|---------------------------------|
|---------------------------------|
|---------------------------------|
|---------------------------------|
|-------8-----7-------------------|
|-0-0-0---0-0---0-0-8-0-0-7-0-6-0-|
    . .   . .   . .   . .   .   .

[Riff 1c]
 x2                 Both Guitars
|------------------|---|
|------------------|---|
|------------------|---|
|----8--7b---------|-2-|
|------------8-7-6-|-2-|
|-0----------------|-0-|

[Riff 2]
|-----------------------------------------------------------------|
|-----------------------------------------------------------------|
|-----------------------------------------------------------------|
|-----------------------------------------------------------------|
|-----------------------------------------------------------------|
|-0-0-0-0-6p5-3-3-3-3-3-3-6p5-6p5-1-1-1-1-5p4-0-0-0-0-0-0-5p4-5p4-|
  . . . .     . . . . . .         . . . .     . . . . . .

[Riff 3]
|---------------------------------|
|---------------------------------|
|---------------------------------|
|---------------------------------|
|-2-------2-------2-------2---2---|
|-0-0-0-0-0-0-0-0-0-0-0-0-0-0-0-0-|
    . . .   . . .   . . .   .   .

[Riff 4]
 x2              x2              x3
|---------------|---------------|---------------|---------------|
|---------------|---------------|---------------|---------------|
|---------------|---------------|---------------|---------------|
|-3--x-x-3--x-x-|-4--x-x-4--x-x-|-8--x-x-8--x-x-|-8--x-x-7--x-x-|
|-3--x-x-3--x-x-|-4--x-x-4--x-x-|-8--x-x-8--x-x-|-8--x-x-7--x-x-|
|-1--x-x-1--x-x-|-2--x-x-2--x-x-|-6--x-x-6--x-x-|-6--x-x-5--x-x-|

[Riff 5]
|-----------------------------------------|
|-----------------------------------------|
|-----------------------------------------|
|-2----4----8----8---7---2----8----10--10-|
|-2----4----8----8---7---2----8----10--10-|
|-0----2----6----6---5---0----6----8---8--|

[Riff 6a]
|-----------------------------------------------------|
|-----------------------------------------------------|
|-----------------------------------------------------|
|-----------7---------7--10------7--9--11--12--11--9b-|
|-6--8--10-----8--10---------10-----------------------|
|-----------------------------------------------------|

|-------------------------------------------------------|
|-------------------------------------------------------|
|-------------------------------------------------------|
|-----------7---------7--10--8--10--12--14--15--14--12b-|
|-6--8--10-----8--10------------------------------------|
|-------------------------------------------------------|

[Riff 6b]
 1         3         2,4
|-Unknown-|-Unknown-|-7---9--11--13--14--13---7b-|
|-Solo-1--|-Solo-2--|----------------------------|
|---------|---------|----------------------------|
|---------|---------|----------------------------|
|---------|---------|----------------------------|
|---------|---------|----------------------------|

Structure:

[Riff 1a] x2
[Riff 1b] x8
[Riff 2] x2
[Riff 1a] x2
[Riff 1b] x8
[Riff 2] x4
[Riff 3] x2
[Riff 4] x2
[Riff 3] x2
[Riff 1a] x2
[Riff 1a] x2 over [Riff 1c]
[Riff 5]
[Riff 3] x8
[Riff 6a] over [Riff 4] x2
[Riff 6b] over [Riff 4] x2 (possibly [Riff 6a] as well)
[Riff 1a] x4    

Added On December 16th, 2013

SHARE

Comments

blog comments powered by Disqus

ADVERTISEMENT