Dimmu Borgir Tabs

Spellbound by the Devil

3 versions

TAB

            Spellbound By The Devil Tab by Dimmu Borgir


Dimmu Borgir
Spellbound (by the devil)
Album: Enthrone darkness trimphant
Bozium

I transcribed this tab because I couldn't find one that really match the song.I'm not sure This one is right. I transcribbed from what I could hear in a live version of the song and from the video Spellbound live in dynamo from which I could take and idea of what to play.Any corrections to thrunum_666@hotmail.com

Intro (00:07 - 00:18)
|------|  X4
|--6---|
|--4---|
|------|

Riff 1 (00:20 - 00:44)
|--------------------------|  x7
|--------------------------|
|--4-444-44-44--5-4-2-4----|
|--------------------------|

After the 7th repetitionin goes:

|-------------------------------|
|-------------------------------|
|-------------------------------|
|-4-444-44-44-5-4-2-5-4-44444---|


Riff 2 (00:44 - 00:55)
|--------------------------|  X6
|--------------------------|
|--------7/6-------6/7-----|
|--0-0-0-----0-0-0---------|

Riff 3 (00:55 - 01:01) 
|----------------------|  x4
|----------------------|
|--------33-2-33333/6--|
|--00000---------------|

Riff 2 (01:01 - 01:07) x4

Riff 4 (01:08 - 01:15) Break with synth
|---|---|---|---|---|---|---|------|
|---|---|---|---|---|---|---|------|
|---|---|---|---|---|---|---|------|
|-4-|-5-|-4-|-5-|-4-|-5-|-4-|-5-5--|

Riff 5 (01:16 - 01:22)
|----------------------------| X4
|----------------------------|
|----------------------------|
|-0-0-0-0-0-0-1-1-1-1-1-1----|

Riff 6 (01:23 - 01:30)
|--------------------------| X4
|--------------------------|
|--------------------------|
|-4-4-4-4-4-4-5-5-5-5-5-5--|

Riff 7 (01:30) Break with synth
|---|---|---|---|---|---|---|------|
|---|---|---|---|---|---|---|------|
|---|---|---|---|---|---|---|------|
|-0-|-1-|-0-|-1-|-0-|-1-|-0-|-1-1--|

Riff 5 (01:37 - 01:43) X4
Riff 6 (01:43 - 01:50) X4

Riff 8 (01:51 - 02:30) Not sure.

In the video he plays something like this but it just doesn't sound
|-------------------|  x12
|------------6--5---|
|--5--3--4----------|
|-------------------|

This is the same riff taken from another tab transcribed by Andre Roy. It sounds better than the one upstairs:
|------------------------------------------|
|------------------------------------------|
|-------------------------------------6--5-|
|-4-4-4-4-4-4-0-0-0-0-0-0-3-3-3-3-3-3------|

Synth part

Riff 9 (02:48 - 04:08)
|------------------------------------------------------------------------|
|------------------------------------------------------------------------|
|-----------------5-3------------3-5----------------------------333-5-3--|
|--5-5-5-5-5-5-5-------3-3-3-3-3------1-1-1-1-1-1-1-1-3-3-3-3-3----------|

|---------------------------------------------------------------------|
|---------------------------------------------------------------------|
|---------------------------------------------------------------------|
|--5-5-5-5-5-5-5-5-3-3-3-3-3-3-3-3-1-1-1-1-1-1-1-1-3-3-3-3-4-4-4-4----|

|------------------------------------------------------------------------|
|------------------------------------------------------------------------|
|-----------------5-3------------3-5----------------------------333-5-3--|
|--5-5-5-5-5-5-5-------3-3-3-3-3------1-1-1-1-1-1-1-1-3-3-3-3-3----------|

|---------------------------------------------------------------------|
|---------------------------------------------------------------------|
|---------------------------------------------------------------------|
|--5-5-5-5-5-5-5-5-3-3-3-3-3-3-3-3-1-1-1-1-1-1-1-1-3-3-3-3-4-4-4-4----|

|---------------------------------------------------|
|---------------------------------------------------|
|---------------------------------------------------|
|-5555555555555333333333333111111111111333333333----| x6 aprox

Repit the last part till the end

---------------------------------------------
Raise your fist in name of satanSpellboundby The Devil Tab by Dimmu Borgir



BAND - DIMMU BORGIR
SONG - SPELLBOUND(BY THE DEVIL)
ALBUM - ENTHRONE DARKNESS TRIUMPHANT

TUNING - STANDERD (E,B,G,D,A,E,)


* = PALM MUTE
/ = SLIDE
~ = LET NOTE RING
h = HAMMER ON


     THIS IS AN AWSOME SONG IT SHOULD BE 100% SOUNDS GOOD TO ME.
                             PLZ RATE.


   INTRO 
E--------------X4]-----------------------------------X4]
B----------------]-------------------------------------]
G----------------]--6-------------6--------6--------6--]
D--6~~-----------]--6------6------6------6-6--7-6-4-6--]
A--4~~----5-4----]--4-4444-6-4444-4-4444-6-4--5-4-2-4--]
E--4~~--------7--]---------4-------------4-------------]
          * * *       ****   ****   ****      * * *


  RIFF 2 (VERSE)                    RIFF 3
E--------------------------------]--------------------X6]
B--------------------------------]----------------------]
G--6--------------------------6--]----------------------]
D--6-------------------7-6-4--6--]-------5-4-------4-5--]
A--4-4444444444444444--5-4-2--4--]-------7-6-------6-7--]
E--------------------------------]--0-00------0-00------]
     ****************  * * *        * **      * **


E-------------------X4]
B---------------------]
G---------------------]
D-------4-3-5----5----]
A-------2-1-3-33-3-6--]
E--0000---------------]
   ****       **

RIFF 3 X4

   
 RIFF 4 X2
E------X4]------------X4]--------------------X4]
B--------]--------------]----------------------]
G--------]--------------]----------------------]
D--------]--------------]----------------------]
A--2--3--]--2222-3333---]--6------6-7------7~--]
E--0--1--]--0000-1111---]--4-4444-4-5-5555-5~--]
                             ****     ****

 gtr 2 (behind riff 4 2nd time)
E---------------------------]
B---------------------------]
G---------------------------]
D--6-7-9-6~--6h7h9~-6h7h9~--]
A---------------------------]
E---------------------------]

E--------------------X4]
B----------------------]
G----------------------]
D----------------------]
A--6------6-7------7~--]
E--4-4444-4-5-5555-5~--]
     ****     ****


  RIFF 5
E------------------------X13]
B---------------------------]
G---------------------------]
D--6~~--2~~--5~~--8~~--7~~--]
A--6~~--2~~--5~~--6~~--5~~--]
E--4~~--0~~--3~~--6~~--5~~--]


   ------------------KEYBOARDS--------------


  RIFF 6 (OUTRO)

E------------------------------------------------------------]
B------------------------------------------------------------]
G------------------------------------------------------------]
D------------------------------------------------------------]
A--7-7777-7-7777-5-5555-5-5555--3-3333-3-3333-5-5555-5-5555--]
E--5-5555-5-5555-3-3333-3-3333--1-1111-1-1111-3-3333-3-3333--]


E------------------------------------------------------------]
B------------------------------------------------------------]
G------------------------------------------------------------]
D------------------------------------------------------------]
A--7-7777-7-7777-5-5555-5-5555--3-3333-3-3333-5-5555-6-6666--]
E--5-5555-5-5555-3-3333-3-3333--1-1111-1-1111-3-3333-4-4444--]



   RIFF 7 GTR 1
E-------------------------------------------------------------------]
B-------------------------------------------------------------------]
G-------------------------------------------------------------------]
D-------------------------------------------------------------------]
A---777777--555555--333333--555555--777777--555555--333333--666666--]
E---555555--333333--111111--333333--555555--333333--111111--444444--]
    ******  ******  ****** *******  ******  ******  ******  ******




  GTR 2 (2 GTRS PLAYING THIS IN HARMONY ARR. FOR 1 GTR)

E-----------------------------------------------------------------------]
B----------------------------10-8----------------8-10~------------------]
G----9-7----7-9----9-7--------------------9-----9-------10-9-9~-7-------]
D--10---10~-----10~-----10~-------10~---10-10~-------------------10-10~-]
A-----------------------------------------------------------------------]
E-----------------------------------------------------------------------]
                 REPEAT THIS AND FADE OUT.



 ENJOY.PLZ RATE.

 TABBED BY - IMMORTAL_STONE    

Added On December 4th, 2013

SHARE

Comments

blog comments powered by Disqus

VERSIONS

ADVERTISEMENT