Dj Tiesto Tabs

Traffic

1 versions

TAB

            e|--9--9--9--9--9--9--9--9--9--8--8--|
B|-----------------------------------|
G|-----------------------------------|
D|-----------------------------------|
A|-----------------------------------|
E|-----------------------------------|...

e|--9--9--9--9--9--9--9--9--9--8---8---9--9--9--9--9--9--9--9--9--8---8---|
B|--6--6--6--6--6--6--7--9--9----------6--6--6--6--6--6--6----------------|
G|----------------------------------------------------------8--6----------|
D|-----------------------------10--10-----------------------------10--10--|
A|------------------------------------------------------------------------|
E|------------------------------------------------------------------------|...    

Added On December 16th, 2013

SHARE

Comments

blog comments powered by Disqus

ADVERTISEMENT