Drake Bell Tabs

End It Good

2 versions

TAB

            |-------------------------------------------------------------------|
|-------------------------------------------------------------------|
|-----6---6---6---6---6---6---6---6---8---8---9---9---6---6---6---6-|    
|-----7---7---7---7---6---6---6---6---9---9---9---9---7---7---7---7-|
|-----7---7---7---7-4-4-4-4-4-4-4-4---9---9---7---7---7---7---7---7-|
|---5-5-5-5-5-5-5-5-----------------7-7-7-7-7-7-7-7-5-5-5-5-5-5-5-5-|

|-------------------------------------------------------------------|
|-------------------------------------------------------------------|
|-----6---6---6---6---6---6---6---6---8---8---8---8---9---9---9---9-|    
|-----7---7---7---7---6---6---6---6---9---9---9---9---9---9---9---9-|      
|-----7---7---7---7-4-4-4-4-4-4-4-4---9---9---9---9---7---7---7---7-|
|---5-5-5-5-5-5-5-5-----------------7-7-7-7-7-7-7-7-7-7-7-7-7-7-7-7-|

|-------------------------------------------------------------------|
|-------------------------------------------------------------------|
|-----6---6---6---6---6---6---6---6---8---8---9---9---6---6---6---6-|    
|-----7---7---7---7---6---6---6---6---9---9---9---9---7---7---7---7-|
|-----7---7---7---7-4-4-4-4-4-4-4-4---9---9---7---7---7---7---7---7-|
|---5-5-5-5-5-5-5-5-----------------7-7-7-7-7-7-7-7-5-5-5-5-5-5-5-5-|

|-------------------------------------------------------------------|
|-------------------------------------------------------------------|
|-----6-----3---3---3---3---4---4---4---4---9---9---9---9-8---------|    
|-----7-6---4---4---4---4---4---4---4---4---9---9---9---9-7-6-------|
|-----7-6---4---4---4---4-2-2-2-2-2-2-2-2-7-7-7-7-7-7-7-7-7-6-------|
|-----5-4-2-2-2-2-2-2-2-2---------------------------------5-4-------|

|-----------------------------------------------------------|
|-----------------------------------------------------------|
|---3---3---3---3---4---4---4---4---9----9---9---9--9-------|    
|---4---4---4---4---4---4---4---4---9----9---9---9--9-------|
|---4---4---4---4-2-2-2-2-2-2-2-2---7----7---7---7--7-------|
|-2-2-2-2-2-2-2-2-------------------------------------------|

|-------------------------------------------------------------------|
|-------------------------------------------------------------------|
|-----6---6---6---6---6---6---6---6---8---8---9---9---6---6---6---6-|    
|-----7---7---7---7---6---6---6---6---9---9---9---9---7---7---7---7-|
|-----7---7---7---7-4-4-4-4-4-4-4-4---9---9---7---7---7---7---7---7-|
|---5-5-5-5-5-5-5-5-----------------7-7-7-7-7-7-7-7-5-5-5-5-5-5-5-5-|

|-------------------------------------------------------------------|
|-------------------------------------------------------------------|
|-----6---6---6---6---6---6---6---6---8---8---9---9---6---6---6---6-|    
|-----7---7---7---7---6---6---6---6---9---9---9---9---7---7---7---7-|
|-----7---7---7---7-4-4-4-4-4-4-4-4---9---9---7---7---7---7---7---7-|
|---5-5-5-5-5-5-5-5-----------------7-7-7-7-7-7-7-7-5-5-5-5-5-5-5-5-|

|-------------------------------------------------------------------|
|-------------------------------------------------------------------|
|-----6---6---6---6---6---6---6---6---8---8---8---8---9---9---9---9-|    
|-----7---7---7---7---6---6---6---6---9---9---9---9---9---9---9---9-|      
|-----7---7---7---7-4-4-4-4-4-4-4-4---9---9---9---9---7---7---7---7-|
|---5-5-5-5-5-5-5-5-----------------7-7-7-7-7-7-7-7-7-7-7-7-7-7-7-7-|






|-------------------------------------------------------------------|
|-------------------------------------------------------------------|
|-----6-----3---3---3---3---4---4---4---4---9---9---9---9-8---------|    
|-----7-6---4---4---4---4---4---4---4---4---9---9---9---9-7-6-------|
|-----7-6---4---4---4---4-2-2-2-2-2-2-2-2-7-7-7-7-7-7-7-7-7-6-------|
|-----5-4-2-2-2-2-2-2-2-2---------------------------------5-4-------|

|-----------------------------------------------------------|
|-----------------------------------------------------------|
|---3---3---3---3---4---4---4---4---9----9---9---9--9-------|    
|---4---4---4---4---4---4---4---4---9----9---9---9--9-------|
|---4---4---4---4-2-2-2-2-2-2-2-2---7----7---7---7--7-------|
|-2-2-2-2-2-2-2-2-------------------------------------------|       

|-------------------------------------------------------------------|
|-------------------------------------------------------------------|
|-----6---6---6---6---6---6---6---6---8---8---8---8---9---9---9---9-|    
|-----7---7---7---7---6---6---6---6---9---9---9---9---9---9---9---9-|      
|-----7---7---7---7-4-4-4-4-4-4-4-4---9---9---9---9---7---7---7---7-|
|---5-5-5-5-5-5-5-5-----------------7-7-7-7-7-7-7-7-7-7-7-7-7-7-7-7-|

|----------------------|
|----------------------|
|-----6---6---6---6--6-|    
|-----7---7---7---7--7-|
|-----7---7---7---7--7-|
|---5-5-5-5-5-5-5-5--5-|    

Added On December 16th, 2013

SHARE

Comments

blog comments powered by Disqus

VERSIONS

ADVERTISEMENT