Ed Sheeran Tabs

The A-team

2 versions

TAB

            Artist: Ed Sheeran
Song: The A Team
(Capo 4th fret)


 Intro
  E. E. E E. E. E E. E. E E. E. E E. E. E E. E. E E. E. E E. E. E
|-3--3--3-3--3--3-3--3--3-3--3--3-0--0--0-0--0--0-3--3--3-3--3--3----|
|-0--0--0-0--0--0-0--0--0-0--0--0-0--0--0-1--1--1-0--0--0-0--0--0----|
|-0--0--0-0--0--0-0--0--0-0--0--0-0--0--0-0--0--0-0--0--0-0--0--0----|
|-0--0--0-0--0--0-0--0--0-0--0--0-2--2--2-2--2--2-0--0--0-0--0--0----|
|-2--2--2-2--2--2-2--2--2-2--2--2-2--2--2-3--3--3-2--2--2-2--2--2----|
|-3--3--3-3--3--3-3--3--3-3--3--3-0--0--0---------3--3--3-3--3--3----|


 Verse
  E. E. E E. E. E E. E. E E. E. E E. E. E E. E. E E. E. E E. E. E
|-3--3--3-3--3--3-3--3--3-3--3--3-0--0--0-0--0--0-3--3--3-3--3--3----|
|-0--0--0-0--0--0-0--0--0-0--0--0-0--0--0-1--1--1-0--0--0-0--0--0----|
|-0--0--0-0--0--0-0--0--0-0--0--0-0--0--0-0--0--0-0--0--0-0--0--0----|
|-0--0--0-0--0--0-0--0--0-0--0--0-2--2--2-2--2--2-0--0--0-0--0--0----|
|-2--2--2-2--2--2-2--2--2-2--2--2-2--2--2-3--3--3-2--2--2-2--2--2----|
|-3--3--3-3--3--3-3--3--3-3--3--3-0--0--0---------3--3--3-3--3--3----|


  E. E. E E. E. E E. E. E E. E. E E. E. E E. E. E E. E. E E. E. E
|-3--3--3-3--3--3-3--3--3-3--3--3-0--0--0-0--0--0-3--3--3-3--3--3----|
|-0--0--0-0--0--0-0--0--0-0--0--0-0--0--0-1--1--1-0--0--0-0--0--0----|
|-0--0--0-0--0--0-0--0--0-0--0--0-0--0--0-0--0--0-0--0--0-0--0--0----|
|-0--0--0-0--0--0-0--0--0-0--0--0-2--2--2-2--2--2-0--0--0-0--0--0----|
|-2--2--2-2--2--2-2--2--2-2--2--2-2--2--2-3--3--3-2--2--2-2--2--2----|
|-3--3--3-3--3--3-3--3--3-3--3--3-0--0--0---------3--3--3-3--3--3----|


 Chorus
  E. E. E E. E. E E. E. E E. E. E E. E. E E. E. E E. E. E E. E. E
|-0--0--0-0--0--0-0--0--0-0--0--0-3--3--3-3--3--3-2--2--2-2--2--2----|
|-1--1--1-1--1--1-1--1--1-1--1--1-0--0--0-0--0--0-3--3--3-3--3--3----|
|-2--2--2-2--2--2-0--0--0-0--0--0-0--0--0-0--0--0-2--2--2-2--2--2----|
|-2--2--2-2--2--2-2--2--2-2--2--2-0--0--0-0--0--0-0--0--0-0--0--0----|
|-0--0--0-0--0--0-3--3--3-3--3--3-2--2--2-2--2--2--------------------|
|---------------------------------3--3--3-3--3--3--------------------|


  E. E. E E. E. E E. E. E E. E. E E. E. E E. E. E E. E. E E. E. E
|-0--0--0-0--0--0-0--0--0-0--0--0-3--3--3-3--3--3-2--2--2-2--2--2----|
|-1--1--1-1--1--1-1--1--1-1--1--1-0--0--0-0--0--0-3--3--3-3--3--3----|
|-2--2--2-2--2--2-0--0--0-0--0--0-0--0--0-0--0--0-2--2--2-2--2--2----|
|-2--2--2-2--2--2-2--2--2-2--2--2-0--0--0-0--0--0-0--0--0-0--0--0----|
|-0--0--0-0--0--0-3--3--3-3--3--3-2--2--2-2--2--2--------------------|
|---------------------------------3--3--3-3--3--3--------------------|


  E. E. E E. E. E E. E. E E. E. E E. E. E E. E. E E. E. E E. E. E
|-0--0--0-0--0--0-3--3--3-3--3--3-0--0--0-0--0--0-3--3--3-3--3--3----|
|-0--0--0-1--1--1-0--0--0-0--0--0-0--0--0-1--1--1-0--0--0-0--0--0----|
|-0--0--0-0--0--0-0--0--0-0--0--0-0--0--0-0--0--0-0--0--0-0--0--0----|
|-2--2--2-2--2--2-0--0--0-0--0--0-2--2--2-2--2--2-0--0--0-0--0--0----|
|-2--2--2-3--3--3-2--2--2-2--2--2-2--2--2-3--3--3-2--2--2-2--2--2----|
|-0--0--0---------3--3--3-3--3--3-0--0--0---------3--3--3-3--3--3----|


  E. E. E E. E. E E. E. E E. E. E E. E. E E. E. E E. E. E E. E. E
|-0--0--0-0--0--0-3--3--3-3--3--3-0--0--0-0--0--0-3--3--3-3--3--3----|
|-0--0--0-1--1--1-0--0--0-0--0--0-0--0--0-1--1--1-0--0--0-0--0--0----|
|-0--0--0-0--0--0-0--0--0-0--0--0-0--0--0-0--0--0-0--0--0-0--0--0----|
|-2--2--2-2--2--2-0--0--0-0--0--0-2--2--2-2--2--2-0--0--0-0--0--0----|
|-2--2--2-3--3--3-2--2--2-2--2--2-2--2--2-3--3--3-2--2--2-2--2--2----|
|-0--0--0---------3--3--3-3--3--3-0--0--0---------3--3--3-3--3--3----|


  E. E. E E. E. E E. E. E E. E. E E. E. E E. E. E E. E. E E. E. E
|-0--0--0-0--0--0-3--3--3-3--3--3-0--0--0-0--0--0-3--3--3-3--3--3----|
|-0--0--0-1--1--1-0--0--0-0--0--0-0--0--0-1--1--1-0--0--0-0--0--0----|
|-0--0--0-0--0--0-0--0--0-0--0--0-0--0--0-0--0--0-0--0--0-0--0--0----|
|-2--2--2-2--2--2-0--0--0-0--0--0-2--2--2-2--2--2-0--0--0-0--0--0----|
|-2--2--2-3--3--3-2--2--2-2--2--2-2--2--2-3--3--3-2--2--2-2--2--2----|
|-0--0--0---------3--3--3-3--3--3-0--0--0---------3--3--3-3--3--3----|


 Verse
  E. E. E E. E. E E. E. E E. E. E E. E. E E. E. E E. E. E E. E. E
|-3--3--3-3--3--3-3--3--3-3--3--3-0--0--0-0--0--0-3--3--3-3--3--3----|
|-0--0--0-0--0--0-0--0--0-0--0--0-0--0--0-1--1--1-0--0--0-0--0--0----|
|-0--0--0-0--0--0-0--0--0-0--0--0-0--0--0-0--0--0-0--0--0-0--0--0----|
|-0--0--0-0--0--0-0--0--0-0--0--0-2--2--2-2--2--2-0--0--0-0--0--0----|
|-2--2--2-2--2--2-2--2--2-2--2--2-2--2--2-3--3--3-2--2--2-2--2--2----|
|-3--3--3-3--3--3-3--3--3-3--3--3-0--0--0---------3--3--3-3--3--3----|


  E. E. E E. E. E E. E. E E. E. E E. E. E E. E. E E. E. E E. E. E
|-3--3--3-3--3--3-3--3--3-3--3--3-0--0--0-0--0--0-3--3--3-3--3--3----|
|-0--0--0-0--0--0-0--0--0-0--0--0-0--0--0-1--1--1-0--0--0-0--0--0----|
|-0--0--0-0--0--0-0--0--0-0--0--0-0--0--0-0--0--0-0--0--0-0--0--0----|
|-0--0--0-0--0--0-0--0--0-0--0--0-2--2--2-2--2--2-0--0--0-0--0--0----|
|-2--2--2-2--2--2-2--2--2-2--2--2-2--2--2-3--3--3-2--2--2-2--2--2----|
|-3--3--3-3--3--3-3--3--3-3--3--3-0--0--0---------3--3--3-3--3--3----|


 Chorus
  E. E. E E. E. E E. E. E E. E. E E. E. E E. E. E E. E. E E. E. E
|-0--0--0-0--0--0-0--0--0-0--0--0-3--3--3-3--3--3-2--2--2-2--2--2----|
|-1--1--1-1--1--1-1--1--1-1--1--1-0--0--0-0--0--0-3--3--3-3--3--3----|
|-2--2--2-2--2--2-0--0--0-0--0--0-0--0--0-0--0--0-2--2--2-2--2--2----|
|-2--2--2-2--2--2-2--2--2-2--2--2-0--0--0-0--0--0-0--0--0-0--0--0----|
|-0--0--0-0--0--0-3--3--3-3--3--3-2--2--2-2--2--2--------------------|
|---------------------------------3--3--3-3--3--3--------------------|


  E. E. E E. E. E E. E. E E. E. E E. E. E E. E. E E. E. E E. E. E
|-0--0--0-0--0--0-0--0--0-0--0--0-3--3--3-3--3--3-2--2--2-2--2--2----|
|-1--1--1-1--1--1-1--1--1-1--1--1-0--0--0-0--0--0-3--3--3-3--3--3----|
|-2--2--2-2--2--2-0--0--0-0--0--0-0--0--0-0--0--0-2--2--2-2--2--2----|
|-2--2--2-2--2--2-2--2--2-2--2--2-0--0--0-0--0--0-0--0--0-0--0--0----|
|-0--0--0-0--0--0-3--3--3-3--3--3-2--2--2-2--2--2--------------------|
|---------------------------------3--3--3-3--3--3--------------------|


  E. E. E E. E. E E. E. E E. E. E E. E. E E. E. E E. E. E E. E. E
|-0--0--0-0--0--0-3--3--3-3--3--3-0--0--0-0--0--0-3--3--3-3--3--3----|
|-0--0--0-1--1--1-0--0--0-0--0--0-0--0--0-1--1--1-0--0--0-0--0--0----|
|-0--0--0-0--0--0-0--0--0-0--0--0-0--0--0-0--0--0-0--0--0-0--0--0----|
|-2--2--2-2--2--2-0--0--0-0--0--0-2--2--2-2--2--2-0--0--0-0--0--0----|
|-2--2--2-3--3--3-2--2--2-2--2--2-2--2--2-3--3--3-2--2--2-2--2--2----|
|-0--0--0---------3--3--3-3--3--3-0--0--0---------3--3--3-3--3--3----|


  E. E. E E. E. E E. E. E E. E. E E. E. E E. E. E E. E. E E. E. E
|-0--0--0-0--0--0-3--3--3-3--3--3-0--0--0-0--0--0-3--3--3-3--3--3----|
|-0--0--0-1--1--1-0--0--0-0--0--0-0--0--0-1--1--1-0--0--0-0--0--0----|
|-0--0--0-0--0--0-0--0--0-0--0--0-0--0--0-0--0--0-0--0--0-0--0--0----|
|-2--2--2-2--2--2-0--0--0-0--0--0-2--2--2-2--2--2-0--0--0-0--0--0----|
|-2--2--2-3--3--3-2--2--2-2--2--2-2--2--2-3--3--3-2--2--2-2--2--2----|
|-0--0--0---------3--3--3-3--3--3-0--0--0---------3--3--3-3--3--3----|


  E. E. E E. E. E E. E. E E. E. E E. E. E E. E. E E. E. E E. E. E
|-0--0--0-0--0--0-3--3--3-3--3--3-0--0--0-0--0--0-3--3--3-3--3--3----|
|-0--0--0-1--1--1-0--0--0-0--0--0-0--0--0-1--1--1-0--0--0-0--0--0----|
|-0--0--0-0--0--0-0--0--0-0--0--0-0--0--0-0--0--0-0--0--0-0--0--0----|
|-2--2--2-2--2--2-0--0--0-0--0--0-2--2--2-2--2--2-0--0--0-0--0--0----|
|-2--2--2-3--3--3-2--2--2-2--2--2-2--2--2-3--3--3-2--2--2-2--2--2----|
|-0--0--0---------3--3--3-3--3--3-0--0--0---------3--3--3-3--3--3----|


 Bridge
  E. E. E E. E. E E. E. E E. E. E E. E. E E. E. E E. E. E E. E. E
|-0--0--0-0--0--0-3--3--3-3--3--3-0--0--0-0--0--0-3--3--3-3--3--3----|
|-0--0--0-1--1--1-0--0--0-0--0--0-0--0--0-1--1--1-0--0--0-0--0--0----|
|-0--0--0-0--0--0-0--0--0-0--0--0-0--0--0-0--0--0-0--0--0-0--0--0----|
|-2--2--2-2--2--2-0--0--0-0--0--0-2--2--2-2--2--2-0--0--0-0--0--0----|
|-2--2--2-3--3--3-2--2--2-2--2--2-2--2--2-3--3--3-2--2--2-2--2--2----|
|-0--0--0---------3--3--3-3--3--3-0--0--0---------3--3--3-3--3--3----|


 Chorus
  W        W        W        H    Q  E E
|-0--------0--------3--------2----2--2-2----|
|-1--------1--------0--------3----3--3-3----|
|-2--------0--------0--------2----2--2-2----|
|-2--------2--------0--------0----0--0-0----|
|-0--------3--------2-----------------------|
|-------------------3-----------------------|


  E. E. E E. E. E E. E. E E. E. E E. E. E E. E. E E. E. E E. E. E
|-0--0--0-0--0--0-0--0--0-0--0--0-3--3--3-3--3--3-2--2--2-2--2--2----|
|-1--1--1-1--1--1-1--1--1-1--1--1-0--0--0-0--0--0-3--3--3-3--3--3----|
|-2--2--2-2--2--2-0--0--0-0--0--0-0--0--0-0--0--0-2--2--2-2--2--2----|
|-2--2--2-2--2--2-2--2--2-2--2--2-0--0--0-0--0--0-0--0--0-0--0--0----|
|-0--0--0-0--0--0-3--3--3-3--3--3-2--2--2-2--2--2--------------------|
|---------------------------------3--3--3-3--3--3--------------------|


  H    H    W        H    H    W
|-0----0----3--------0----0----3----|
|-0----1----0--------0----1----0----|
|-0----0----0--------0----0----0----|
|-2----2----0--------2----2----0----|
|-2----3----2--------2----3----2----|
|-0---------3--------0---------3----|


  E. E. E E. E. E E. E. E E. E. E E. E. E E. E. E E. E. E E. E. E
|-0--0--0-0--0--0-3--3--3-3--3--3-0--0--0-0--0--0-3--3--3-3--3--3----|
|-0--0--0-1--1--1-0--0--0-0--0--0-0--0--0-1--1--1-0--0--0-0--0--0----|
|-0--0--0-0--0--0-0--0--0-0--0--0-0--0--0-0--0--0-0--0--0-0--0--0----|
|-2--2--2-2--2--2-0--0--0-0--0--0-2--2--2-2--2--2-0--0--0-0--0--0----|
|-2--2--2-3--3--3-2--2--2-2--2--2-2--2--2-3--3--3-2--2--2-2--2--2----|
|-0--0--0---------3--3--3-3--3--3-0--0--0---------3--3--3-3--3--3----|


  E. E. E E. E. E E. E. E E. E. E E. E. E E. E. E E. E. E E. E. E
|-0--0--0-0--0--0-3--3--3-3--3--3-0--0--0-0--0--0-3--3--3-3--3--3----|
|-0--0--0-1--1--1-0--0--0-0--0--0-0--0--0-1--1--1-0--0--0-0--0--0----|
|-0--0--0-0--0--0-0--0--0-0--0--0-0--0--0-0--0--0-0--0--0-0--0--0----|
|-2--2--2-2--2--2-0--0--0-0--0--0-2--2--2-2--2--2-0--0--0-0--0--0----|
|-2--2--2-3--3--3-2--2--2-2--2--2-2--2--2-3--3--3-2--2--2-2--2--2----|
|-0--0--0---------3--3--3-3--3--3-0--0--0---------3--3--3-3--3--3----|


 Bridge
  E. E. E E. E. E E. E. E E. E. E E. E. E E. E. E E. E. E E. E. E
|-0--0--0-0--0--0-3--3--3-3--3--3-0--0--0-0--0--0-3--3--3-3--3--3----|
|-0--0--0-1--1--1-0--0--0-0--0--0-0--0--0-1--1--1-0--0--0-0--0--0----|
|-0--0--0-0--0--0-0--0--0-0--0--0-0--0--0-0--0--0-0--0--0-0--0--0----|
|-2--2--2-2--2--2-0--0--0-0--0--0-2--2--2-2--2--2-0--0--0-0--0--0----|
|-2--2--2-3--3--3-2--2--2-2--2--2-2--2--2-3--3--3-2--2--2-2--2--2----|
|-0--0--0---------3--3--3-3--3--3-0--0--0---------3--3--3-3--3--3----|


 Ending
  E. E. E E. E. E E. E. E E. E. E E. E. E E. E. E E. E. W
|-0--0--0-0--0--0-3--3--3-2--2--2-0--0--0-0--0--0-3--3--3----|
|-0--0--0-1--1--1-0--0--0-3--3--3-0--0--0-1--1--1-0--0--0----|
|-0--0--0-0--0--0-0--0--0-2--2--2-0--0--0-0--0--0-0--0--0----|
|-2--2--2-2--2--2-0--0--0-0--0--0-2--2--2-2--2--2-0--0--0----|
|-2--2--2-3--3--3-2--2--2---------2--2--2-3--3--3-2--2--2----|
|-0--0--0---------3--3--3---------0--0--0---------3--3--3----|


www.guitarstars.biz    

Added On December 16th, 2013

SHARE

Comments

blog comments powered by Disqus

VERSIONS

ADVERTISEMENT