Ellie Goulding Tabs

Explosions

1 versions

TAB

            verses~
e|------------------------------------------------------|
B|----------6---------5---------------------------------|
G|------5---------5-------------------------------------|
D|---7--------7-----------------------------------------|
A|------------------------------------------------------|
E|------------------------------------------------------|

pre-chorus/bridge~
e|--------5-----------------------------------------------|
B|-----6-------5------6--------8--------------------------|
G|--7-------6------7--------9-----------------------------|
D|--------7------8-------10-------------------------------|
A|--------------------------------------------------------|
E|--------------------------------------------------------|
for the chorus it's the same as those^
except i strum them all together    

Added On December 16th, 2013

SHARE

Comments

blog comments powered by Disqus

ADVERTISEMENT