Elliot Minor Tabs

Parallel Worlds

7 versions

TAB

            Artist:    Elliot minor
 Song:     Parallel worlds           
Tabbed by: David Nuttall                 
 
Standard tuning

This is my first tab and i listened to this song by ear and im pretty sure its correct but im not 100%

Intro

e|----------------------------------------------------------------|
B|----------------------------------------------------------------|
G|----------------------------------------------------------------|
D|---6----6666--6666--6666----------------------------------------|
A|---4—---4444--4444--4444----------------------------------------|
E|----------------------------------------------------------------|

Intro Solo

E|----------------------------------------------------------------|
B|-10-9-1010--7---7---7-------------------------------------------|
G|--------------9---9----9--6-666-7-6-----------------------------|
D|------------------------------------9---------------------------|
A|----------------—-----------------------------------------------|
E|----------------------------------------------------------------|

E|-17-16-1717--14---14---14----------------------------------------|
B|----------------17---17----17--14-141414-15-14-------------------|
G|-----------------------------------------------16--14--13---14---|
D|-----------------------------------------------------------------|
A|---—-------------------------------------------------------------|
E|-----------------------------------------------------------------|

Verse

e|----------------------------------------------------------------|
B|----------------------------------------------------------------|
G|----------------------------------------------------------------|
D|----------------2-x16--4—x16------------------------------------|X2        
A|--4-x16--2-x16--0------2----------------------------------------|
E|--2------0------------------------------------------------------|

Pre-Chorus

e|-----------------------------------------------------------------|
B|-----------------------------------------------------------------|
G|---7-----------2-------------------------------------------------|
D|---7---4---2---2-------------------------------------------------|
A|---5---4---2---0-------------------------------------------------|
E|-------2---0-----------------------------------------------------|

e|-----------------------------------------------------------------|
B|-----------------------------------------------------------------|
G|--7-------6------------------------------------------------------|
D|--7---4---6------------------------------------------------------|
A|--5---4---4------------------------------------------------------|
E|------2----------------------------------------------------------|

Chorus

e|----------------------------------------------------------------|
B|----------------------------------------------------------------|
G|----------------------------------------------------------------| 
D|----------------7--7--7--7---2222--2222222----------------------|    
A|--4-4-4--444----5--4--5--4---0000--2222222----------------------| 
E|--2-0-2--222-----------------------0000000----------------------|
e|----------------------------------------------------------------|
B|----------------------------------------------------------------|
G|-4--6--7--9-----------------------------------------------------|
D|-x--x--x--x-----------------------------------------------------|
A|-2--4--5--7-----------------------------------------------------|
E|----------------------------------------------------------------|

e|----------------------------------------------------------------|
B|----------------------------------------------------------------|
G|----------------------------------------------------------------|
D|--44--22--44--22--77--77--44--66--------------------------------|X2
A|--44--22--44--22--55--44--22--44--------------------------------|
E|--22--00--22--00------------------------------------------------|


Verse 2

Palm Mute first time round. But not second.

e|----------------------------------------------------------------|
B|----------------------------------------------------------------|
G|----------------------------------------------------------------|
D|----------------------------------------------------------------|
A|--------------------2-4-2--------22-----22------22--------------|
E|--22-5--22-5--22-5--------5---00-----00-----00------------------|

Pm…………………………………………………………………………………………………………………………………………

e|----------------------------------------------------------------|
B|----------------------------------------------------------------|
G|----------------------------------------------------------------|
D|--2-4-2--------22----22----22----22-----------------------------|
A|--------4---00----00----00----00-----22-5--22-5--22-5-----------|
E|----------------------------------------------------------------|

Pm……………………………………………………………………………………………………………………………………………

Play again with no palm mute 

e|----------------------------------------------------------------|
B|----------------------------------------------------------------|
G|----------------------------------------------------------------|
D|----------------------------------------------------------------|
A|--------------------2-4-2--------22-----22------22--------------|
E|--22-5--22-5--22-5--------5---00-----00-----00------------------|

e|----------------------------------------------------------------|
B|----------------------------------------------------------------|
G|----------------------------------------------------------------|
D|--2-4-2--------22----22----22----22-----------------------------|
A|--------4---00----00----00----00-----22-5--22-5--22-5-----------|
E|----------------------------------------------------------------|


Pre-Chorus

e|-----------------------------------------------------------------|
B|-----------------------------------------------------------------|
G|---7-----------2-------------------------------------------------|
D|---7---4---2---2-------------------------------------------------|
A|---5---4---2---0-------------------------------------------------|
E|-------2---0-----------------------------------------------------|

e|-----------------------------------------------------------------|
B|-----------------------------------------------------------------|
G|--7-------6------------------------------------------------------|
D|--7---4---6------------------------------------------------------|
A|--5---4---4------------------------------------------------------|
E|------2----------------------------------------------------------|

Chorus

e|----------------------------------------------------------------|
B|----------------------------------------------------------------|
G|----------------------------------------------------------------| 
D|----------------7--7--7--7---2222--2222222----------------------|    
A|--4-4-4--444----5--4--5--4---0000--2222222----------------------| 
E|--2-0-2--222-----------------------0000000----------------------|

e|----------------------------------------------------------------|
B|----------------------------------------------------------------|
G|-4--6--7--9-----------------------------------------------------|
D|-x--x--x--x-----------------------------------------------------|
A|-2--4--5--7-----------------------------------------------------|
E|----------------------------------------------------------------|

Thats all ive learnt at the moment, hopefully have the rest soon =] 

hope it sounds right.
Tabbed by: David Nuttall    

Added On December 16th, 2013

SHARE

Comments

blog comments powered by Disqus