Elton John Tabs

Your Song

2 versions

TAB

            Elton John - Your Song

Tabbed by:Joe P
Email:

Tuning:EADGBE (standard)

e|------------3---4-------4---|-------1---------------------|
B|--------------4---4-1-----4-|-1-3-----3----------1--------|
G|----0-1-3-------------------|-----3-----3-1--------3------|
D|----------------------------|---------------1-------------|
A|----------------------------|-----------------3------3----|
E|----------------------------|-----------------------------|

e|----------------------------|-----------------------------|
B|----------------------------|-----------------------------|
G|-----0---0---0-0-0----------|----------3---0--------------|
D|---1---3---3-------1-----1--|-----3-3----3-----0-------0--|
A|-1-----1-------3-3---3-----3|-1---1-1----1-1-----1-1-----1|
E|-----------------------4----|---1------------3-------3----|
  1. Its a little bit funny          This feeling inside
  2. If I were a sculptor            but then again no

e|----------------------------|-----------------------------|
B|----------------------------|-----------------------------|
G|----------------------------|-----0-0---------------------|
D|-1-------1-1-0-1------0--1--|---1-----1--4-3-1-----1------|
A|---3---3----------3---------|-3-----3----2-----1-2--------|
E|-----3---3-----3----3-3--3--|-3----------------3----------|
 1.Im not one of those who can         Easily hide
 2.Or a man who makes potions  in a   Traveling show

e|----------------------------|-----------------------------|
B|----------------------------|------1----------------------|
G|---------------0------------|--0-3---0--------------------|
D|-------1---1-1-0-3--1-------|----5-----3-1-1--------------|
A|---1-3---1-----1------------|--------3--------1---3-1-----|
E|-3-------3------------------|-------------------0---------|
  1.I dont have much money          but boy if i did
  2.I know its not much          but its the best i can do

e|----------------------------|-----------------------------|
B|-------------1--------------|-----------------------------|
G|---------0-3-1---1-0-0------|--------------------3--------|
D|-----1-1---5-1---1-----3-1-3|-----1--1-------3---3--0-----|
A|---1-----------3---3--------|---3----3----3--5-1------1---|
E|-3--------------------------|-4---------4-----------------|
  1.Id buy a big house where        we both could live
  ++++++++++DONT PLAY THIS FOR SECOND VERSE+++++++++++      


FILL 1 (between verses)
e|----------------|
B|----------------|
G|--3-----3-------|
D|----3-1---3-0-3-|
A|----------------|
E|----------------|then back to beginning to start 2nd verse


e|----------------------------|-----------------------------|
B|-------------1--------------|-----------------------------|
G|---------0-3-1---1-0-0------|-------------------0---------|
D|-----1-1---5-1---1-----3-1-3|-----1--1-1----------1-------|
A|---1-----------3---3--------|---3------3--1---1-----1-----|
E|-3--------------------------|-4-----------3-3-------------|
   2.My gift is my song and         this ones for you  


FILL 2 (before chorus)
e|---------------|
B|---------------|
G|-1-----0-------|
D|---1-----1-----|
A|-----3-----1---|
E|---------------|

e|---------------------------|------------------------------|
B|----------1----------------|------------------------------|
G|-0-3--0-3---3-0------------|----------0-------------------|
D|----------------3-1--------|-----1-------3--1-------------|
A|---------------------------|--3----3----------------------|
E|---------------------------|------------------------------|
  And you can tell everybody      this is your song


e|---------------------------|------------------------------|
B|-----------1---------------|------------------------------|
G|----0-3--3---3--0----------|----------0-------------------|
D|--3---------------3-1------|-1---1------3-1---------------|
A|--1------------------------|---3---3----------------------|
E|---------------------------|-4----------------------------|
  It may be quite simple but    now that its done


e|------------------------|---------------------------------|
B|------1---1--4---1--1-4-|-4-1-0-1--4-1--------------------|
G|--0-0---3-0----3----0---|-------0----0-3-1----------------|
D|--1-----5----5----------|-5--------------3----------------|
A|-------------6----------|-6-------------------------------|
E|------------------------|---------------------------------|
   I hope you dont mind   I hope you dont mind that i put down in words



e|---------------------------|------------------------------|
B|---------------------------|------------------------------|
G|-3-0-----------------------|-----------------3------------|
D|-----1--3------------------|-4-3-1--1-3--0---3--0---------|
A|--------5---3------------3-|---------------1------1-------|
E|---------------------------|------------------------------|
   How wonderful life is   while your in the world 

FILL 3 (after chorus)
e|---------------------------|
B|---------------------------|
G|------3--------------------|
D|-3-1--3--0-----------------|
A|----1-----1----------------|
E|---------------------------|then back to the beginning again    

Added On December 16th, 2013

SHARE

Comments

blog comments powered by Disqus

VERSIONS

ADVERTISEMENT