Emarosa Tabs

Jesus Plays A Firebird

1 versions

TAB

            Jesus Plays A Firebird By Emarosa (At That Time Called Corsets Are Cages)
This is mostly the rhythm guitar

IF YOU WANT THE SONG OR HAVE ANY SUGGESTIONS SEND AN EMAIL TO 
and I'll send you the mp3 file or consider your correction, I am only human, but so are you, so maybe I'll 
it wrong, but most probablly I will say it's right


INTRO (first four times with palm mute)
e--------------------------8-----6-----5-----|
B-----------6-5-6-5-6-5-6----6-----6-----6---|
g---------5--------------------5-----5-----5-|(X 8)
d--------------------------------------------|
a--------------------------------------------|
D--------------------------------------------|


Verse (play it over and over again until he screams SMILE AS IT BURNS)

e--------------------------------------------|
B--------------------------------------------|
g--------------------------------------------|
d-0-0-0--10----------------------------------|
a-0-0-0--8-----------------------------------|
D-0-0-0--------------------------------------|
  . . .


Little interlude

e--------------------------------------------|
B--------------------------------------------|
g-------------------------------------10~----|
d-9-10-12--14-12-10----000-00--000-00-x------|
a-7-8--10--12-10-8-----000-00--000-00-8-~----|
D----------------------000-00--000-00--------|
                       ... ..  ... ..

(PIANO THINGY)


CHORUS (KINDA like the chorus)

e--------------------------------------------|
B--------------------------------------------|
g--------------------------------------------|
d--00-10-00-1010~----------------------------|
a--00-8--00-8-8-~----------------------------|
D--00----00----------------------------------|
   ..    ..


e--------------------------------------------|
B--------------------------------------------|
g-------------------------------------10~----|
d-00000000000000000000000000000000000-x------|
a-00000000000000000000000000000000000-8-~----|
D-00000000000000000000000000000000000--------|
  ...................................


ROOMY PART IN MIDDLE (Guitar doesn't play much, just these two chords)

e---9-9-9-8-8--------------------------------|
B---7-7-7-6-6--------------------------------|
g--------------------------------------------|
d--------------------------------------------|
a--------------------------------------------|
D--------------------------------------------|


Agai with the chorus riff

Then a lot of palm muting on 0

then you do these chords (after the two times, you just strm them instead of letting 
ring exept the last two chords unti the end)
e-----------------------------------------------|
B-----------------------------------------------|
g-7~-9~-10~-12~----7~--------7~-----------------|
d-x--x--x---x------x---------x------------------|(X2)
a-5~-7~-8~--10~----5~--------5~-----------------|
D-----------------------------------------------|    

Added On December 16th, 2013

SHARE

Comments

blog comments powered by Disqus

ADVERTISEMENT