Endstille Tabs

Navigator

1 versions

TAB

            |------------------------------------|
|------------------------------------|
|------------------------------------|
|-----9-------7-7-----9-------6-6----|
|-7-7-7-7-8-8-8-8-7-7-7-7-8-8-8-8----|
|-0-0-0-0---------0-0-0-0------------|


|--------------------------------------------------------------------|
|--------------------------------------------------------------------|
|--------------------------------------------------------------------|
|-5-5-5-5-5-5-5-5-1-1-1-1-1-1-1-1-5-5-5-5-5-5-5-5-1-1-1-1-3-3-3-3----|
|-7-7-7-7-7-7-7-7-3-3-3-3-3-3-3-3-7-7-7-7-7-7-7-7-3-3-3-3-5-5-5-5----|
|--------------------------------------------------------------------|


|----------------------------------------------------------------------|
|----------------------------------------------------------------------|
|---------------------------------------------------------10-10-9-9----|
|---------5-5-------------4-4-------------5-5---------6-6--6--6-6-6----|
|-7-7-7-7-7-7-7-7-6-6-6-6-6-6-6-6-7-7-7-7-7-7-7-7-8-8-8-8--8--8-8-8----|
|-0-0-0-0-0-0-0-0-----------------0-0-0-0-0-0-0-0----------------------|


|----------------------------------------------------------------------|
|----------------------------------------------------------------------|
|----------------------------------------------------------------------|
|-9-9-9-9-7-7-7-7-9-9-9-9-7-7-6-6-9-9-9-9-7-7-7-7-9-9-9-9-7-7-10-10----|
|-7-7-7-7-8-8-8-8-7-7-7-7-8-8-8-8-7-7-7-7-8-8-8-8-7-7-7-7-8-8--8--8----|
|-0-0-0-0---------0-0-0-0---------0-0-0-0---------0-0-0-0--------------|    

Added On December 16th, 2013

SHARE

Comments

blog comments powered by Disqus

ADVERTISEMENT