Enslaved Tabs

Suttungs Mjod

1 versions

TAB

            Suttungs Mjod Tab by Enslaved


Suttungs Mjod
by Enslaved
from the album Blodhemn
tabbed by Rob Hartzog (Cunnla)

Riff 1A (clean)
|-----------------------------------------------------|
|-----------------------------------------------------|
|-----------------------------------------------------|
|--4-----3--4--6--6h7-6----7--6--4--7--4--4p3(6)------|
|-----4-----------------------------------------------|
|-----------------------------------------------------|

|-------------------------------------------------------1--1h2---|
|-------------------------------------------------------6--6h7---|
|----------------------------------------------------------------|
|--4-----3--4--6--6h7-6--(4-\3)--7--6-----7--6--3--3h4-----------|
|-----4--------------------------------4-------------------------|
|----------------------------------------------------------------|

There may be some confusion about the end of the above passage.  
The last part may be played on either the 1st fret, 1st string or 6th fret, 2nd string.

If you get bored with this part, you may play the notes in parentheses.  
These notes follow Grutle’s vocal melody (they’re not actually played on 
guitar in the song).  If you listen to the vocals you should understand what 
I’m talking about.  I added this merely because this is a pretty simple song 
with few parts and I thought you might want to spice it up a bit (a very little bit).

Riff 1B
|-------------------------------------------------------|
|-------------------------------------------------------|
|--6--4-----------/6--6--4------------------------------|
|--------/7--6--------------/7--6--4--3--0--3--3h4------|
|-------------------------------------------------------|
|-------------------------------------------------------|
    
|-------------------------------------------------------------|
|-------------------------------------------------------------|
|--6--4----------/6--6--4-------------------------------------|
|--------/7-6--------------/7--6--4--3--0---------------------|
|------------------------------------------4--3--0--3--3h4----|
|-------------------------------------------------------------|

|---------------------|
|---------------------|
|---------------------|
|---------------------|
|--4--3--0--3--3h4----|
|---------------------|

Riff 2 (distorted)
|--------------------------------------|
|--6--6-6-6-6--4--3--6--6-6-6-6--4--3--|
|--7--7-7-7-7--5--4--7--7-7-7-7--5--4--|
|--7--7-7-7-7--5--4--7--7-7-7-7--5--4--|
|--5--5-5-5-5--3--2--5--5-5-5-5--3--2--|
|--------------------------------------|

|--------------------------------------|
|--8--8-8-8-8--6--5--8--8-8-8-8--6--5--|
|--9--9-9-9-9--7--6--9--9-9-9-9--7--6--|
|--9--9-9-9-9--7--6--9--9-9-9-9--7--6--|
|--7--7-7-7-7--5--4--7--7-7-7-7--5--4--|
|--------------------------------------|

At some points between verses there is a note.  
I’m not sure if it’s a guitar or not, but it is an E.  
Playing like this sounded best:

|--0--||--5--||--9--||-----||-----||-----|


I’m confident that this is all correct.  
If there are any questions or corrections, email me at Cunnla@hotmail.com.
Enjoy!    

Added On December 4th, 2013

SHARE

Comments

blog comments powered by Disqus

ADVERTISEMENT