Evanescence Tabs

Call Me When Youre Sober

10 versions

TAB

            ----------------------------------------------------------------------------
                                                     Parts Played On Les Paul Studio
----------------------------------------------------------------------------
Tabbed by: Aidan Falchook
Email: aidanfalchook@yahoo.com
Tuning: Drop D-DADGBE

d-0-2-------------0-2-------------0-2-------------0-2--------------|
a-0-2-10-0-9-0-7--0-2-10-0-9-0-5--0-2-10-0-9-0-7--0-2-10-0-9-0-5---|
d-0-2-------------0-2-------------0-2-------------0-2--------------|
g------------------------------------------------------------------|
b------------------------------------------------------------------|
e------------------------------------------------------------------|

                                                     [<                 DO THIS PART 2X! 
                  >]
d-0h2--0h2--0h2--0h2--| d-0-2------------0-2------------|
a-0h2--0h2--0h2--0h2--| a-0-2-10p0-9p0-7-0-2-10p0-9p0-5-|
d-0h2--0h2--0h2--0h2--| d-0-2------------0-2------------|
g---------------------| g-------------------------------|
b---------------------| b-------------------------------|
e---------------------| e-------------------------------|

d-0-----6-----0-----1-----5-----1-----5----------|
a-0-----6-----0-----1-----5-----1-----5----------|
d-0-----6-----0-----1-----5-----1-----5----------|
g------------------------------------------------|
b------------------------------------------------|
e------------------------------------------------|

----------------------------------------------------------------------------
This part accompanied by piano:           |
                                                                     |
d-0-2--0-2--|                                        | -- |
a-0-2--0-2--|                                       ----- |
d-0-2--0-2--|                                       ----- |
g-----------|                                       ----- |
b-----------|                                       ----- |
e-----------|                                       ----- |
--------------------------------------------------------- |

d-2--0h2--0h2--0h2-|
a-2--0h2--0h2--0h2-|
d-2--0h2--0h2--0h2-|
g------------------|
b------------------|
e------------------|

WELL, THAT'S THE MAIN RYTHMS ON THE GIBSON.    

Added On December 16th, 2013

SHARE

Comments

blog comments powered by Disqus