Fall Out Boy Tabs

Ginasfs

4 versions

TAB

            Ginasfs Tab by Fall Out Boy


Song:G.I.N.A.S.F.S(Bonus Track)Stands for Gay Is Not a Synonym for Shitty
Album:Infinity on High
Artist:Fall Out Boy
Date Tabbed:January,2006
Guitar Tabber:Ryan Manongdo/16/m/Philippines
              no_falter0x@yahoo.com(Friendster&YM)

 Please post a comment or mail me if there's something wrong.Just listen to the
song well and you will get it.

Gtr.Legends:
~ - let it ring
. - palm muting
x - dead string
h - hammer-on
b - bending 

Gtr.Tuning:Drop D

Intro prt.1:
e|-----------------|
B|-----------------|
G|-----------------| Then
D|-77-77-7-77-77---|
A|-55-55-0-55-55---|
D|-----------------|

Intro prt.2:
Gtr.1
e|--------------------------------|
B|--------------------------------|
G|--------------------------------| 2x
D|-77-77---77-77------------------|
A|-55-55-7-55-55--99-99-7-99-99---|
D|-------7--------99-99-7-99-99---|

Gtr.2
e|-----------------------------------------------|
B|-----------------------------------------------|
G|-1111-1111-7--1111-1111----1111-1111-14-1111---| 2x
D|--x-x--x-x-x---x-x--x-x-----x-x--x-x-xx--x-x---|
A|--9-9--9-9-5---9-9--9-9-----9-9--9-9-12--9-9---|
D|-----------------------------------------------|

Verse 1:I've loved everything...
e|------------------------|
B|------------------------|
G|------------------------| Then
D|-0~~---9-7-5~~---7777---|
A|-0~~---9-7-5~~---7777---|
D|-0~~---9-7-5~~---7777---|

e|-------------------------------------------------------------------|
B|-------------------------------------------------------------------|
G|-------------------------------------------------------------------|
D|-77-77-7-77-77-7---99-99-7-99-99-7---55-4-5--4-55-4-5--77777-777---|
A|-55-55-7-55-55-7---99-99-7-99-99-7---55-4-5--4-55-4-5--55555-777---|
D|-------7-------7---99-99-7-99-99-7---55-4-5--4-55-4-5--------777---|

Pre-Chorus:Things aren't the...
Gtr.1
e|-------------|
B|-------------|
G|-------------| 2x
D|-5555-7777---|
A|-5555-5555---|
D|-5555--------|

Gtr.2
e|-5-------5-----------------5-------5----------------------|
B|---5-7b----5-7b--------------5-7b----5-7b---7-9-11-9-11---|
G|-----------------7-6-4-2--------------------x-x--x-x--x---|
D|--------------------------------------------5-7--9-7--9---|
A|----------------------------------------------------------|
D|----------------------------------------------------------|

Chorus:Trade baby blues...
e|-------------------------------------------|
B|-------------------------------------------|
G|-------------------------------------------|
D|-444---555---777---444----444---222---4~---|
A|-222---555---555---444----222---222---4~---|
D|-------555---------444----------222---4~---|

Gtr.2
e|---------------------------------------------------------------------------|
B|---------------------------------------------------------------------------|
G|---------------------------------------------------------------------------| 2x
D|-9-11-11h12-------12-14-16--------9-11-11h12-----8h9-8h9-8h9-8h9-8h9-8h9---|
A|------------12~------------16~---------------12~---------------------------|
D|---------------------------------------------------------------------------|

Repeat Intro prt.2:

Verse 2:I've already given...
Play Verse 1

Repeat Pre-Chorus:
Repeat Chorus:

Repeat Intro prt.1 and 2:

Bridge:I was born under...
Gtr.1
e|-----------|
B|-----------|
G|------7~---| 4x
D|-5~---7~---|
A|-5~---5~---|
D|-5~--------|

Gtr.2:Play Pre-Chorus but I think there's an additional notes..just figure it out!!

Trade bay blues...
Gtr.1
e|--------------------------------------------|
B|--------------------------------------------|
G|-4444-------77777---------4444--------------| 2x
D|-4444-55555-77777-44444---4444-2222-44444---|
A|-2222-55555-55555-44444---2222-2222-44444---|
D|------55555-------44444--------2222-44444---|

Gtr.2:Play Chorus

Outro:
e|------------------------|
B|------------------------|
G|------------------------|
D|-777--7-777-7-777-7-0---|
A|-555--7-555-7-555-7-0---|
D|------7-----7-----7-0---|
        .     ,     . .

End...


G.I.N.A.S.F.S. Lyrics:

Verse 1:
I've loved everything about you that hurts,
So let me see your moves,
Let me see your moves,
Lips pressed this close to mine
True Blue, 
But the prince of this failing empire knows that
Everybody wants
Everybody wants to drive on through the night,
If it's the drive back home

Pre-Chorus:
Things aren't the same anymore,
Some nights it gets so bad that I almost pick up the phone

Chorus:
Trade Baby Blues, for Wide-Eyed Browns
I sleep with your old shirts
And walk through this house in your shoes
I know its strange
It's a strange way of saying that i know I'm supposed to love you
I'm supposed to love you

Verse 2:
I've already given up on myself once
But the third time's the charm,
Third time is the charm
Threw caution to the wind,
But I've got a lousy arm,
And I've traced your shadows on the wall
Now I kiss them whenever I'm down,
Whenever I'm down
Just kind of figured on
Not figuring myself out

Repeat Pre-Chorus:
Repeat Chorus:

Bridge:
I was born under a bad sign,
But you saved my life
That night on the roof of your hotel
"Cross my heart and hope to die,
Splinter from the headboard in my eye"
Photo-proofed kisses I remember so well

Repeat Chorus:    

Added On December 4th, 2013

SHARE

Comments

blog comments powered by Disqus

VERSIONS

ADVERTISEMENT