Finger Eleven Tabs

Paralyzer

8 versions

TAB

            Paralyzer Tab by Finger Eleven


                                  Paralyzed                                     


Finger Eleven
Track 3



                   E  E  E   E  E  S E  S  E     E  E  E   E  E  S E  S  E   
E||-------|-----|-----------------------------|-----------------------------|
B||-------|-----|-----------------------------|-----------------------------|
G||-------|-----|-----------------------------|-----------------------------|
D||-------|-----|-----9--7--------------------|-----9--7--------------------|
A||-------|-----|-----------10--9----9--9-10--|-----------10--9----9--9-10--|
E||-------|-----|-----------------------------|-----------------------------|


  Q    E  E  E.  E.  E     E  E  E   E  E  S E  S  E   
------------------------|-----------------------------|
------------------------|-----------------------------|
--2---------------------|-----------------------------|
--7----------9---7---5--|-----9--7--------------------|
--7----------0---0---0--|-----------10--9----9--9-10--|
--5---------------------|-----------------------------|


  E  E  E   E  E  S E  S  E     E  E  E   E  E  S E  S  E   
-----------------------------|-----------------------------|
-----------------------------|-----------------------------|
-----------------------------|-----------------------------|
-----9--7--------------------|-----9--7--------------------|
-----------10--9----9--9-10--|-----------10--9----9--9-10--|
-----------------------------|-----------------------------|


  Q    E  E  E.  E.  E     E  E  E   E  E  S E  S  E                       
------------------------|-----------------------------|-------------------|
------------------------|-----------------------------|-------------------|
--2---------------------|-----------------------------|-------------------|
--7----------9---7---5--|-----9--7--------------------|-------------------|
--7----------0---0---0--|-----------10--9----9--9-10--|-------------------|
--5---------------------|-----------------------------|-------------------|


 
  Q    E  E  H           Q    E  E  H         
|----------------------|----------------------|
|----------------------|----------------------|
|----------------------|----------------------|
|----------------------|----------------------|
|--9----7--5--4--------|--9----7--5--4--------|
|--7----5--3--2--------|--7----5--3--2--------|


  E  E  E   E  E  S E  S  E     E  E  E   E  E  S E  S  E   
-----------------------------|-----------------------------|
-----------------------------|-----------------------------|
-----------------------------|-----------------------------|
-----9--7--------------------|-----9--7--------------------|
-----------10--9----9--9-10--|-----------10--9----9--9-10--|
-----------------------------|-----------------------------|


  Q    E  E  E.  E.  E     E  E  E   E  E  S E  S  E   
------------------------|-----------------------------|
------------------------|-----------------------------|
--2---------------------|-----------------------------|
--7----------9---7---5--|-----9--7--------------------|
--7----------0---0---0--|-----------10--9----9--9-10--|
--5---------------------|-----------------------------|


  E  E  E   E  E  S E  S  E     E  E  E   E  E  S E  S  E   
-----------------------------|-----------------------------|
-----------------------------|-----------------------------|
-----------------------------|-----------------------------|
-----9--7--------------------|-----9--7--------------------|
-----------10--9----9--9-10--|-----------10--9----9--9-10--|
-----------------------------|-----------------------------|


  Q    E  E  E.  E.  E     E  E  E   E  E  S E  S  E                           
------------------------|-----------------------------|-----|-----|-----|-----|
------------------------|-----------------------------|-----|-----|-----|-----|
--2---------------------|-----------------------------|-----|-----|-----|-----|
--7----------9---7---5--|-----9--7--------------------|-----|-----|-----|-----|
--7----------0---0---0--|-----------10--9----9--9-10--|-----|-----|-----|-----|
--5---------------------|-----------------------------|-----|-----|-----|-----|



  Q    E  E  H           Q    E  E  H           E  E  E   E  E  S E  S  E   
----------------------|----------------------|-----------------------------|
----------------------|----------------------|-----------------------------|
----------------------|----------------------|-----------------------------|
----------------------|----------------------|-----9--7--------------------|
--9----7--5--4--------|--9----7--5--4--------|-----------10--9----9--9-10--|
--7----5--3--2--------|--7----5--3--2--------|-----------------------------|


  E  E  E   E  E  S E  S  E     Q    E  E  E.  E.  E   
-----------------------------|------------------------|
-----------------------------|------------------------|
-----------------------------|--2---------------------|
-----9--7--------------------|--7----------9---7---5--|
-----------10--9----9--9-10--|--7----------0---0---0--|
-----------------------------|--5---------------------|


  E  E  E   E  E  S E  S  E     E  E  E   E  E  S E  S  E   
-----------------------------|-----------------------------|
-----------------------------|-----------------------------|
-----------------------------|-----------------------------|
-----9--7--------------------|-----9--7--------------------|
-----------10--9----9--9-10--|-----------10--9----9--9-10--|
-----------------------------|-----------------------------|


  E  E  E   E  E  S E  S  E     Q    E  E  E.  E.  E   
-----------------------------|------------------------|
-----------------------------|------------------------|
-----------------------------|--2---------------------|
-----9--7--------------------|--7----------9---7---5--|
-----------10--9----9--9-10--|--7----------0---0---0--|
-----------------------------|--5---------------------|


  E  E  E   E  E  S E  S  E                 E  E  E   E  E  S E  S  E   
-----------------------------|-----|-----|-----------------------------|
-----------------------------|-----|-----|-----------------------------|
-----------------------------|-----|-----|-----------------------------|
-----9--7--------------------|-----|-----|-----9--7--------------------|
-----------10--9----9--9-10--|-----|-----|-----------10--9----9--9-10--|
-----------------------------|-----|-----|-----------------------------|


  E  E  E   E  E  S E  S  E     E   E   E   E   E  S E  S E   
-----------------------------|-------------------------------|
-----------------------------|-----12--12--10--12--9-7--7-8--|
-----------------------------|------x---x---x---x--x-x--x-x--|
-----9--7--------------------|------9---9---7---9--6-4--4-5--|
-----------10--9----9--9-10--|-------------------------------|
-----------------------------|-------------------------------|


  E   E   E   E   E  S E  S E     E   E   E   E   E  S E  S E   
-------------------------------|-------------------------------|
-----12--12--10--12--9-7--7-8--|-----12--12--10--12--9-7--7-8--|
------x---x---x---x--x-x--x-x--|------x---x---x---x--x-x--x-x--|
------9---9---7---9--6-4--4-5--|------9---9---7---9--6-4--4-5--|
-------------------------------|-------------------------------|
-------------------------------|-------------------------------|


  S S S S S S S S Q    E  E                                                   
-----------------------------|-----|-----|-----|-----|-----|-----|-----|-----|
-----------------------------|-----|-----|-----|-----|-----|-----|-----|-----|
-----------------------------|-----|-----|-----|-----|-----|-----|-----|-----|
-----------------------------|-----|-----|-----|-----|-----|-----|-----|-----|
-----------------------------|-----|-----|-----|-----|-----|-----|-----|-----|
--7-7-7-7-5-5-3-3-2----5--7--|-----|-----|-----|-----|-----|-----|-----|-----|


  E  E  E   E  E  S E  S  E     E  E  E   E  E  S E  S  E   
-----------------------------|-----------------------------|
-----------------------------|-----------------------------|
-----------------------------|-----------------------------|
-----9--7--------------------|-----9--7--------------------|
-----------10--9----9--9-10--|-----------10--9----9--9-10--|
-----------------------------|-----------------------------|


  Q    E  E  E.  E.  E     E  E  E   E  E  S E  S  E   
------------------------|-----------------------------|
------------------------|-----------------------------|
--2---------------------|-----------------------------|
--7----------9---7---5--|-----9--7--------------------|
--7----------0---0---0--|-----------10--9----9--9-10--|
--5---------------------|-----------------------------|


  E  E  E   E  E  S E  S  E     E  E  E   E  E  S E  S  E   
-----------------------------|-----------------------------|
-----------------------------|-----------------------------|
-----------------------------|-----------------------------|
-----9--7--------------------|-----9--7--------------------|
-----------10--9----9--9-10--|-----------10--9----9--9-10--|
-----------------------------|-----------------------------|


  Q    E  E  E.  E.  E     E  E  E   E  E  S E  S  E   
------------------------|-----------------------------|
------------------------|-----------------------------|
--2---------------------|-----------------------------|
--7----------9---7---5--|-----9--7--------------------|
--7----------0---0---0--|-----------10--9----9--9-10--|
--5---------------------|-----------------------------|


  E  E  E   E  E  S E  S  E     E  E  E   E  E  S E  S  E   
-----------------------------|-----------------------------|
-----------------------------|-----------------------------|
-----------------------------|-----------------------------|
-----9--7--------------------|-----9--7--------------------|
-----------10--9----9--9-10--|-----------10--9----9--9-10--|
-----------------------------|-----------------------------|


  Q    E  E  E.  E.  E     E  E  E   E  E  S E  S  E   
------------------------|-----------------------------|
------------------------|-----------------------------|
--2---------------------|-----------------------------|
--7----------9---7---5--|-----9--7--------------------|
--7----------0---0---0--|-----------10--9----9--9-10--|
--5---------------------|-----------------------------|


  E  E  E   E  E  S E  S  E     E  E  E   E  E  S E  S  E   
-----------------------------|-----------------------------|
-----------------------------|-----------------------------|
-----------------------------|-----------------------------|
-----9--7--------------------|-----9--7--------------------|
-----------10--9----9--9-10--|-----------10--9----9--9-10--|
-----------------------------|-----------------------------|


  Q    E  E  E.  E.  E     E  E  E   E  E  S E  S  E   
------------------------|-----------------------------|
------------------------|-----------------------------|
--2---------------------|-----------------------------|
--7----------9---7---5--|-----9--7--------------------|
--7----------0---0---0--|-----------10--9----9--9-10--|
--5---------------------|-----------------------------|


  E  E  E   E  E  S E  S  E    
-----------------------------||
-----------------------------||
-----------------------------||
-----9--7--------------------||
-----------10--9----9--9-10--||
-----------------------------||




Duration legend
---------------
W - whole
H - half
Q - quarter
E - 8th
S - 16th
T - 32nd
X - 64th    

Added On December 4th, 2013

SHARE

Comments

blog comments powered by Disqus