Flickerstick Tabs

Beautiful

3 versions

TAB

            Beautiful Tab by Flickerstick


Flickerstick, Beautiful.
Tabbed by Charlie Davis, Smavis1186@aol.com.
  
Band:Flickerstick 
Song:Beautiful 
Tuning:normal
intro
------------------------------------------------------
-----5------5------5------5---------------------------
-3-4----3-4----3-4----3-4-----------------------------
------------------------------------------------------
------------------------------------------------------
------------------------------------------------------
intro/verse
----------------------------------|-------------------
-9-9-9---17---9-9-9---14---9-9-9--|-12--9--7--5--x2---
----------------------------------|-------------------
----------------------------------|-------------------
----------------------------------|-------------------
----------------------------------|-------------------
chorus:
guitar 1                  guitar 2   
------------------------|-----------------------------
------------------------|-----------------------------
------------------------|-----------------------------
--6---6--4---4--2---2---|--6---6--4---4--0--0---------
--4---4--2---2--0---0---|--------------------------------------------------------------------
closing:
------------------------------------------------------
------------------8-7---------------------------------
---7-7-7-7-7-7-7-------------------------------------------------------------------------------------------------
 
:: Ultimate Guitar Archive :: 
http://www.ultimate-guitar.com    

Added On December 4th, 2013

SHARE

Comments

blog comments powered by Disqus

VERSIONS

ADVERTISEMENT