TAB

            Song: Brets Day
Artist: Flight of the conchords
Guitarist: Bret Mckenzie

      D              D/C#           D/B            D/A
e|----2---2-2-2-2----2---2-2-2-2----2---2-2-2-2----2---2-2-2-2---------------|
B|----3---3-3-3-3----3---3-3-3-3----3---3-3-3-3----3---3-3-3-3---------------|
G|----2---2-2-2-2----2---2-2-2-2----2---2-2-2-2----2---2-2-2-2---------------|
D|----0---0-0-0-0----x---x-x-x-x----0---0-0-0-0----0---0-0-0-0---------------|
A|-------------------4---4-4-4-4----2---2-2-2-2----0---0-0-0-0---------------|
E|---------------------------------------------------------------------------|

      G              D/F#           Em             A
e|----3---3-3-3-3----2---2-2-2-2----0---0-0-0-0----0---0-0-0-0---------------|
B|----3---3-3-3-3----3---3-3-3-3----0---0-0-0-0----2---2-2-2-2---------------|
G|----0---0-0-0-0----2---2-2-2-2----0---0-0-0-0----2---2-2-2-2---------------|
D|----0---0-0-0-0----0---0-0-0-0----2---2-2-2-2----2---2-2-2-2---------------|
A|----2---2-2-2-2----x---x-x-x-x----2---2-2-2-2----0---0-0-0-0---------------|
E|----3---3-3-3-3----2---2-2-2-2----0---0-0-0-0------------------------------|

Bass Clarinet(It's best to play this bass but it will work on guitar) 
e|---------------------------------------------------------------------------|
B|---------------------------------------------------------------------------|
G|---------------------------4-------------------------------4---------------|
D|----------------------5-7-----7---5--7--5------------5-7------7-5-7--------|
A|-----6---4---6-4---6-------------------------6----4------------------------|
E|---------------------------------------------------------------------------|    

Added On December 16th, 2013

SHARE

Comments

blog comments powered by Disqus

ADVERTISEMENT