TAB

            Jenny Tab by Flight Of The Conchords


Standard Tuning

h = Hammer
p = Pull
~ = vibrato

CHORDS Dmaj C#? F#min Gmaj
------ ---- --- ----- ----
X X X X
X X 10 12
11 11 11 12
12 12 11 12
12 12 9 10
10 9 X X


E-----------5-3-2-------------------------------------|
B-2h3p2-----------5-3-2---------------------2-3-2-5-3-|
G-------4-2~------------4-2-2h4p2-2h4p2-2-4-----------|
D---------------------------0-----0-------------------|
A-----------------------------------------------------|
E-----------------------------------------------------|

E-5-3-2-------5-3-2-----------------------------...
B-------5-3p2-------5-3-(2)-----2h3p2~2h3p2p0---...
G---------------------------4-2--------------h2-...
D-----------------------------------------------...
A-----------------------------------------------...
E-----------------------------------------------...    

Added On December 4th, 2013

SHARE

Comments

blog comments powered by Disqus

VERSIONS

ADVERTISEMENT