Foghat Tabs

I Just Want To Make Love To You

2 versions

TAB

            I put the other intro up a while back, but I thought I’d clean it up a bit, I 
put in the two guitar parts separately.

   |------------------------------------------------------------------|
   |------------------------------------------------------------------|
 G1|-7b~~---------------7br-5---5-5-----------------------------------|
   |-------------------------7------5h7-------------------------------|
   |------------------------------------------------------------------|
   |------------------------------------------------------------------|
   |
   |(guitar 2 echoes guitar one slightly delayed)
   |------------------------------------------------------------------|
   |------------------------------------------------------------------|
 G2|--------7b~~-------------------------------7br-5---5-5------------|
   |------------------------------------------------7------5h7--------|
   |------------------------------------------------------------------|
   |------------------------------------------------------------------|
    this 2x, then switch it up to:

|---------------------------------------------------------------------|
|---------------------------------------------------------------------|
|7br-5----------------------------7br-5-------------------------------|
|------5h7------------------------------5h7---------------------------|
|---------------------------------------------------------------------|
|---------------------------------------------------------------------|
|
|
|---------------------------------------------------------------------|
|---------------------------------------------------------------------|
|----------------7br-5----------------------------7br-5---------------|
|----------------------5h7------------------------------5h7-----------|
|---------------------------------------------------------------------|
|---------------------------------------------------------------------|
 this keeps repeating faster/(less delay b/t the 2 guitars)

Then:

 A5        D5 C5   A5      D5 C5
|------------------------------------------|
|------------------------------------------|
|-----------7-5-------------7-5------------|
|7-7--7--7--7-5----7--7--7--7-5------------|keep repeating
|7-7--7--7--5-3----7--7--7--5-3------------|
|5-5--5--5---------5--5--5-----------------|
Note: this rhythm may be confusing,
it may help to count in your head like: 1,2,3,4--1,2--2,3,4--1,2
(or maybe that’s more confusing)


Then’ as that rhythm is going guitars are soloing on A minor pentatonic. (For beginners 
there, just mess with that intro if u don’t know the scale).    

Added On December 16th, 2013

SHARE

Comments

blog comments powered by Disqus

VERSIONS

ADVERTISEMENT