Foo Fighters Tabs

Long Road To Ruin

5 versions

TAB

            TAB BY LUIGI CORVINO FROM ITALY
I LOVE FOO FIGHTERS

INTRO
e----------------------------------------------------------------------------|
B--5----5-------5--3-------------5--3--------------5--3-----------5--3-------|
G--5----5------5-----5--4-5-----5-----5--4-5------5----5--4-5----5----5--4-5-|
D--5----5-----5----------------5-----------------3--------------3------------|
A--3----3----3----------------3-----------------3--------------3-------------|
E----------------------------------------------------------------------------|

VERSE

e---------------------------------------------------------------------------|
B-----------5--3-------------5--3--------------5--3-----------5--3----------|
G----------5-----5--4-5-----5-----5--4-5------5----5--4-5----5----5--4-5----|
D---------5----------------5-----------------3--------------3---------------|
A--------3----------------3-----------------3--------------3----------------|
E---------------------------------------------------------------------------|


PRE CHORUS

e-------------------------------------------------------------|
B-------------------------------------------------------------|
G-------------------------------------------------------------|
D-------------------------------------------------------------|
A---3--0--2--0--3h2--3--0--3/5--5-----------------------------|
E-------------------------------------------------------------|

Chorus

e----------------|------------------|---------------|-----------------------|
B----------------|------------------|---------------|-----------------------|
G----------5-----|-----------5---4--|----------7----|--5---7---9---10-------|
D----3-----5-----|----3------5---4--|----7-----7----|--x---x---x---x--------|
A----3-----3-----|----3------3---2--|----7-----5----|--3---5---7---8--------|
E----1-----------|----1-------------|----5----------|-----------------------|


VERSE
---------
PRECHORUS
-----------
CHORUS
------------

bridge
e-----------------------------------------|
B--------5--------------5-----------------|
G----------5----X2--------5---X2----------|
D-----5--------------3--------------------|
A----3--------------3---------------------|
E-----------------------------------------|


SOLO
e---------------------------------------------------------------|
B-----------8------5--5b7--5--3---------------------------------|
G---0---5-------5----------------5---7---5--------------X2------|
D--------------------------------------------7---5--------------|
A---------------------------------------------------------------|
E---------------------------------------------------------------|

e---------------------------------------------------------------|
B---------------------------------------------------------------|
G----6--7--5----------------------------------------------------|
D-------------7--5-7-5------------------------------------------|
A----------------------7--5----5---7---3--5--3--0---3-----------|
E---------------------------------------------------------------|

e-----------------------------------------------------------------------|
B-----------------------------------------------------------------------|
G------------------------5--7---9999-7-5-7-5---7-5-7-7--6-5--7--5-------|
D-------------------5--7------------------------------------------------|
A---0--3---0---5--7-----------------------------------------------------|
E-----------------------------------------------------------------------|

e--------------------------------------|
B--------------------------------------|
G---5--6-5-----------------------------|
D-----------7--5-----------------------|
A------------------7---5-0-3-----------|
E--------------------------------------|

CHORUS
---------
OUTRO

e-------------------------------------------|
B-------------------------------------------|
G----5---7---9---10---9---10--10--10--5-----|
D----X---x---x---x----x---x---x---x---x-----|
A----3---5---7---8----7---8---7---8---3-----|
E-------------------------------------------|    

Added On December 16th, 2013

SHARE

Comments

blog comments powered by Disqus