For Today Tabs

The Breakers Commission

1 versions

TAB

            ------------The Breaker's Commission - For Today-------------------

check out my cover to see how its played
       http://www.youtube.com/watch?v=hDsHhg10vQk

Tuning:  Drop C, dont pay attention to tuning on template

finger pick and let the lowest notes ring
e|-------------------------------------------------------------------------|
B|--------------------------------18-13----17-13------15-------------------|
G|-----10/12---12/14---14/17-----------------------------------------------|
D|---0-------0-------0-----------------------------------------------------|
A|-----------------------------13-------15--------17-----------------------|
E|-------------------------------------------------------------------------|

 e|-----------------------------------------------6----5----------------------|
 B|---------------------------------------------------------------------------|
 G|-----10/12---12/14---14/17---17-17h1917-------------------10-9h10h9--------|
d -----0------0-------0------------------------------------------------10-----|
A|------------------------------------------------8----8----------------------|
E|-----------------------------------------------------------10---------------|
        Repeat Above two lines together 8 times i believe

e|----8-------------------------------------------------------------------|
B|----8-------------------------------------------------------------------|
G|---10---10--------------------------------------------------------------|
D|---10---10---10--12-----Repeat Twice------------------------------------|
A|----8---5----8---10-----------------------------------------------------|
E|-------------8---10-----------------------------------------------------|

       Heavy distortion/Chills down spine moment
 e|--------------------------------------------------------------------------|
 B|--------------------------------------------------------------------------|
 G|--------Strum-------------------------------------------------------------|
 D|----3----0----8----10--(10--101010-10-10)---------------------------------|
 A|----3----0----8----10--(10--101010-10-10)---------------------------------|
E|-----3----0----8----10--(10--101010-10-10)---------------------------------|
                         [  palm mute   ]


************************************

| /   slide up
| \   slide down
| h   hammer-on
| p   pull-off
| ~   vibrato
| +   harmonic
| x   Mute note
| b   Bend
| pb  Pre-bend
| br  Bend release
| pbr Pre-bend release
| brb Bend release bend

************************************    

Added On December 16th, 2013

SHARE

Comments

blog comments powered by Disqus

ADVERTISEMENT