Gbh Tabs

Give Me Fire

2 versions

TAB

            Give Me Fire Tab by Gbh


-----------------------------------------------------------------------------
			     GIVE ME FIRE - G.B.H
-----------------------------------------------------------------------------
Tabbed by: Taylor Sellers
Email: NOFX@herzeleid.net

Tuning: Standard (EADGBE)


INTRO - hit this chord a lot (take off the E|--0-| if you want)
e|-----------------------------------------------------------------|
B|-----------------------------------------------------------------|
G|---------9-------------------------------------------------------|
D|---------9-------------------------------------------------------|
A|---------7-------------------------------------------------------|
E|---------O-------------------------------------------------------|



VERSE
e|---------------------------|
B|---------------------------|
G|--9-9--9-7-----------------|
D|--9-9--9-7-7-7-------------|
A|--7-7--7-5-7-7-------------|
E|-----------5-5-------------|



CHORUS
e|------------------------------------|
B|------------------------------------|
G|---------------5-5--4-3-2-----------|
D|-5-5--5-7-7--7-5-5--4-3-2-----------|
A|-5-5--5-7-7--7-3-3--2-1-0-----------|
E|-3-3--3-5-5--5----------------------|



HERE YOU GUYS GO IN THE INTERLUDE JUST PLAY THE INTRO.

\m/ Peace In \m/    

Added On December 4th, 2013

SHARE

Comments

blog comments powered by Disqus

VERSIONS

ADVERTISEMENT