Get Cape Wear Cape Fly Tabs

Whitewash Is Brainwash

2 versions

TAB

            Whitewash Is Brainwash Tab by Get Cape Wear Cape Fly


================================================
Get Cape Wear Cape Fly - Whitewash is Brainwash
================================================

Simple but great song!

Capo 3rd
relative to capo

Intro:
e|----------0-----------------|
B|-------------------------0--|
G|------4--------------2------|
D|----2---2----------0---0----|  x2
A|--0-------------------------|
E|-----------------3----------|

And the rest of the song goes like this until he starts strumming

e|----------0-----------------0---------|
B|------------1---1-----------0---------|
G|------4-------4---------2-----2---2---|
D|----2---2-------------0---0-----0-----| Repeat however many times
A|--0-----------------------------------|
E|--------------------3-----------------|

And these are the chords he uses when strumming

e|--0-----0----|
B|--1-----1----|
G|--4-----0----|
D|--2-----0----|
A|--0-----2----|
E|--x-----3----|

Listen to the song for the strumming pattern

Please rate! :]    

Added On December 4th, 2013

SHARE

Comments

blog comments powered by Disqus

VERSIONS

ADVERTISEMENT