Gg Allin Tabs

Cock On The Loose

1 versions

TAB

            Cock On The Loose
GG Allin with ANTiSEEN
Album: Murder Junkies
Tuning: Standard

   F5                                                   A#5      C5
E|-----------------|-----------------|-----------------|-----------------|
B|----x-x-x-x-x-x--|----x-x-x-x-x-x--|----x-x-x-x-x-x--|-----------------|
G|----x-x-x-x-x-x--|----x-x-x-x-x-x--|----x-x-x-x-x-x--|-3-------5-------|
D|-3--x-x-x-x-x-x--|-3--x-x-x-x-x-x--|-3--x-x-x-x-x-x--|-3-------5-------|
A|-3--x-x-x-x-x-x--|-3--x-x-x-x-x-x--|-3--x-x-x-x-x-x--|-1-------3-------|
E|-1---------------|-1---------------|-1---------------|-----------------|
1. "I got my cock on the loose, I got my cock on the loose..."
3. "I got my cock on the loose, It's full of hot wet juice..."

   F5                                                    C5 A#5  F5
E|-----------------|-----------------|-----------------|-----------------|
B|----x-x-x-x-x-x--|----x-x-x-x-x-x--|----x-x-x-x-x-x--|-----------------|
G|----x-x-x-x-x-x--|----x-x-x-x-x-x--|----x-x-x-x-x-x--|-5---3-----------|
D|-3--x-x-x-x-x-x--|-3--x-x-x-x-x-x--|-3--x-x-x-x-x-x--|-5---3---3-------|
A|-3--x-x-x-x-x-x--|-3--x-x-x-x-x-x--|-3--x-x-x-x-x-x--|-3---1---3-------|
E|-1---------------|-1---------------|-1---------------|---------1-------|
2. "I got my cock on the loose, I got my cock on the loose..."
4. "I got my cock on the loose, I got my cock on the loose..."

   A#5               C5                F5                C5 A#5  F5
E|-----------------|-----------------|-----------------|-----------------|
B|-----------------|-----------------|-----------------|-----------------|
G|-3-3-3-3-3-3-3-3-|-5-5-5-5-5-5-5-5-|-----------------|-5---3-----------|
D|-3-3-3-3-3-3-3-3-|-5-5-5-5-5-5-5-5-|-3-3-3-3-3-3-3-3-|-5---3---3-------|
A|-1-1-1-1-1-1-1-1-|-3-3-3-3-3-3-3-3-|-3-3-3-3-3-3-3-3-|-3---1---3-------|
E|-----------------|-----------------|-1-1-1-1-1-1-1-1-|---------1-------|

  "It's          a-  bout to      ex-  plode"
  "'Til I'm gonna    blow another      load "
   ...



spunk87@freenet.de
steffenwoehler87@gmail.com    

Added On May 20th, 2014

SHARE

Comments

blog comments powered by Disqus

ADVERTISEMENT