Gg Allin Tabs

Livin Like An Animal

1 versions

TAB

            Livin Like An Animal Tab by Gg Allin


By: Prick Rafter

Intro      3x                   1x
E---------------------|--------------------------|
B---------------------|--------------------------|
G----5-----------4----|---5----------------------|
D----5--5--7--5--4--2-|---5--5--7--5--4--9-------|
A----3--5--7--5--4--2-|---3--5--7--5--4--9-------|
E-------3--5--3--2--0-|------3--5--3--2--7-------|

Verse   3x           1x
E-------------|-------------------|
B-------------|-------------------|
G----5--------|---5---------------|
D----5--5--2--|---5--5--7---------|
A----3--5--2--|---3--5--7---------|
E-------3--0--|------3--5---------|

This is another way you can play the verse
      3x              1x
E---------------|-------------------|
B---------------|-------------------|
G---5-----------|---5---------------|
D---5--5--4--2--|---5--5--4--7------|
A---3--5--4--2--|---3--5--4--7------|
E------3--2--0--|------3--2--5------|

You can figure out your own solo, I am too lazy. You also have to listen to the cd to 
out the number of times you play each chord.
GG ALLIN IS GOD    

Added On December 4th, 2013

SHARE

Comments

blog comments powered by Disqus

ADVERTISEMENT