TAB

            NOTE: For simplicity's sake, it seems as though this song is meant to be played with the 
E tuned to an F. I think this is done in the movie.


INTRO
 [C]                [F]                [C]                [F]
E --------0-------   --------1---0---   --------0-------   ----------------|
B 1---3-------3---   1---3-----------   1---3-------3---   1---1---1---1---|
G --0---0---0---0-   --0---0---0---0-   --0---0---0---0-   --0---0---0---0-|
D ----------------   ----------------   ----------------   ----------------|
A 3---------------   ----------------   3---------------   ----------------|
F ----------------   0---------------   ----------------   0---------------|

VERSE (play 2x)
 [C]                [F]                [C]                [F]
E --------0-------   --------1---0---   --------0-------   ----------------|
B 1---3-------3---   1---3-----------   1---3-------3---   1---1---1---1---|
G --0---0---0---0-   --0---0---0---0-   --0---0---0---0-   --0---0---0---0-|
D ----------------   ----------------   ----------------   ----------------|
A 3---------------   ----------------   3---------------   ----------------|
F ----------------   0---------------   ----------------   0---------------|

BRIDGE
 [Am]    [G]        [F]     [G]        [Am]    [G]        [F]     [G]
E ----------------   ----------------   ----------------   ----------------|
B ----1---0-----0-   ----1---0-----0-   ----1---0-----0-   ----1---0-----0-|
G 2---------0-----   2---------0-----   2---------0-----   2---------0-----|
D --2---2-----0---   --3---3-----0---   --2---2-----0---   --3---3-----0---|
A 0---------------   ----------------   0---------------   ----------------|
F --------2-------   0-------2-------   --------2-------   0-------2-------|

CHORUS (strummed, 4x)
 [C]                [Fadd9]            [Am]               [Fadd9] [F]
E 3---------------   3---------------   0---------------   3-------1-------|
B 1---------------   1---------------   1---------------   1-------1-------|
G 0---------------   2---------------   2---------------   2-------2-------|
D 2---------------   3---------------   2---------------   3-------3-------|
A 3---------------   0---------------   0---------------   0-------0-------|
F X---------------   0---------------   X---------------   0-------0-------|