Gob Tabs

Hey Stephanie

1 versions

TAB

            Hey Stephanie Tab by Gob


#----------------------------------PLEASE NOTE---------------------------------#
#This file is the author's own work and represents their interpretation of the #
#song. You may only use this file for private study, scholarship, or research. #
#------------------------------------------------------------------------------#

Song: Hey Stephanie
Band: Gob
Tabbed By: Mit (send_in_the_klowns@hotmail.com)

e|------------------r-------------------------------------------------|
B|------------------e-------------------------------------------------|
G|-4-4-X-X-X-X-X-X--p-------------------------------------------------|
D|-4-4-X-X-X-X-X-X--e-------------------------------------------------|
A|-2-2-X-X-X-X-X-X--a-------------------------------------------------|
E|------------------t-------------------------------------------------|

   riff 1
e|-------------------------------------------------------------------r|
B|-------------------------------------------------------------------e|
G|-4-4--------------------------------4-4----------------------------p|
D|-4-4-----------x8--2-2----------x2--4-4----------x2--4-4---------2-e|
A|-2-2-5-2-4-2-------2-2--------------2-2-5-2-4-2------4-4---------2-a|
E|-------------------0-0-3-0-2-0-----------------------2-2-5-2-4-2-0-t|

    riff 2
e|--------------------------------------------------------------------|
B|--------------------------------------------------------------------|
G|-4--8--9--11--------------------------------------------------------|
D|-4--8--9--11--------------------------------------------------------|
A|-2--6--7--9---during solo repeat the above--------------------------|
E|--------------------------------------------------------------------|    

Added On December 4th, 2013

SHARE

Comments

blog comments powered by Disqus

ADVERTISEMENT