God Forbid Tabs

End Of The World

3 versions

TAB

            End Of The World Tab by God Forbid


-------------------------------------------------------------------------------
		    The End Of The World - God Forbid
-------------------------------------------------------------------------------


Tuning: Drop-C


The legend is at the bottom of the page.

Intro :

Clean;
D|----------------------------------------------------5-5-----|
A|-----------------------------------------------------4------|
F|---10-9--7-6-7-7--12-12-10^---10-9--7-6-7-7-3-3-5^----------|
C|----0-0--0-0-0-0---0--0--0-----0-0--0-0-0-0-0-0-0-----------|
G|------------------------------------------------------------|
C|------------------------------------------------------------|


D|------------------------------------------------------------------|
A|------------------------------------------------------------------|
F|------------------------------------------------------------------|
C|---------00-0000---------00-0000-----------66-6666----------------|
G|------5--00-0000------3--00-0000------8----66-6666------8---------|
C|--5p0----00-0000--3p0----00-0000--8p5------66-6666--7p8-----------|
           .. ....         .. ....           .. ....

--------------------|
--------------------|
--------------------| x2
------7---00-0000---|
--5p4-----00-0000---|
----------00-0000---|
          .. ....

D|--------------------------|
A|--------------------------|
F|--------------------------|
C|--0~----------    

Added On December 4th, 2013

SHARE

Comments

blog comments powered by Disqus

VERSIONS

ADVERTISEMENT