Gojira Tabs

Inward Mouvement

1 versions

TAB

            Inward Mouvement Tab by Gojira


#----------------------------------PLEASE NOTE-------------------------------
#This file is theauthor's own work and represents their interpretation of the#
#song. You may only use this file for private study,scholarship, research.#
#----------------------------------------------------------------------------
#-- File created with Instab - http://www.pconline.com/~smcarey/instab.html -
#----------------------------------------------------------------------------

Author/Artist: gojira
Title: Inward Mouvement
Album: The Link
Transcribed by: Metallica44
Drop D

-----------------------------------------------------------------------------|
-----------------------------------------------------------------------------|
-----------------------------------------------------------------------------|
--4--4-----4--4----4-----4--4----4--4--4--3----------------------------------|
--2--2-----2--2----2-----2--2----2--2--2--3----------------------------------|
--2--3-----2--3----2-----2--3----2--3--2--1----------------------------------|


-----------------------------------------------------------------------------|
-----------------------------------------------------------------------------|
-----------------------------------------------------------------------------|
--4--4-----4--4----4-----4--4----4--4--4--3----------------------------------|
--2--2-----2--2----2-----2--2----2--2--2--3----------------------------------|
--2--3-----2--3----2-----2--3----2--3--2--1----------------------------------|


-------------------------------------------------|---------------------------|
-------------------------------------------------|---------------------------|
-------------------------------------------------|---------------------------|
--4--4-----4--4----4-----4--4----4--4--4--3------|---------------------------|
--2--2-----2--2----2--x/-2--2----2--2--2--3------|-0-1-2-1-0-1-0-1-2-1-------|
--2--3-----2--3----2--x/-2--3----2--3--2--1------|-0-1-2-1-0-1-0-1-2-1-------|
                                                  PM-------------------------|

------------------------------------------------------------------------------|
------------------------------------------------------------------------------|
----------------------4-----------------------5----4--------------------------|
----------------------x-----------------------x----x--------------------------|
--0-1-0-1-0-1-2-1-0---2-------0-1-2-1-0-1-----3----2--------------------------|
--0-1-0-1-0-1-2-1-0-----------0-1-2-1-0-1-------------------------------------|
 ------------------           ------------------------------------------------|

------------------------------------------------------------------------------|
------------------------------------------------------------------------------|
------------------------------------------------------------------------------|
-----------------------3--3--------3--3--------3--3---------------------------|
--0-1-2-1-0-1-0-1-0-1--x--x--------x--x--------x--x---------------------------|
--0-1-2-1-0-1-0-1-0-1--1--1---0-0--1--1--0--0--1--1--0--0---------------------|
  -------------------         ---        ----        -------------------------|


------------------------------------------------------------------------------|
------------------------------------------------------------------------------|
----------------------4-----------------------5----4--------------------------|
----------------------x-----------------------x----x--------------------------|
--0-1-2-1-0-1-0-1-0---2-------0-1-2-1-0-1-----3----2--------------------------|
--0-1-2-1-0-1-0-1-0-----------0-1-2-1-0-1-------------------------------------|
 ------------------           ------------------------------------------------|

-----------------------------|------------------------------------------------|
-----------------------------|------------------------------------------------|
------2------2---------3-3-3-|-----2------2---------3-3-3---2h3p2h3p2h3p2-----|
--0-0----0-0----0-0-0--------|-0-0----0-0-----0-0-0---------------------------|
--0-0----0-0----0-0-0--------|-0-0----0-0-----0-0-0---------------------------|
--0-0----0-0----0-0-0----------0-0----0-0-----0-0-0---------------------------|
 PM---------------------------------------------------------------------------|

------------------------------------------------------------------------------|
------------------------------------------------------------------------------|
------------------------------4-4-4-4-4-4-4-4-4-4-----------------------------|
--3--3/6---6---6----6---5-----------------------------------------------------|
--x--x-x---x---x----x---x-----------------------------------------------------|
--1--1/4---4---4----4---3-----------------------------------------------------|
                             PM-----------------------------------------------|

-----------------------------------------------------------------------------|
-----------------------------------------------------------------------------|
-----------------------------------------------------------------------------|
--1111111111111111111111111111111111111111111--------------------------------|
--xxxxxxxxxxxxxxxxxxxxxxxxxxxxxxxxxxxxxxxxxxx---x2---------------------------|
--9999999999999999999999999999999999999999999--------------------------------|

-----------------------------------------------------------------------------|
-----------------------------------------------------------------------------|
-1111111111111111-1212121212-14141414-1818181818-16161616--------------------|
--x-x-x-x-x-x-x-x--x-x-x-x-x--x-x-x-x--x-x-x-x-x--x-x-x-x--------------------|
--9-9-9-9-9-9-9-9-1010101010-12121212-1616161616-14141414--------------------|

-----------------------------------------------------------------------------|
-11111111111111-12121212-9999999999-121212121212-9999999999------------------|
--x-x-x-x-x-x-x--x-x-x-x-xxxxxxxxxx--x-x-x-x-x-x-xxxxxxxxxx------------------|
--9-9-9-9-9-9-9-10101010-7777777777-101010101010-7777777777------------------|

-----------------------------------------------------------------------------|
-----------------------------------------------------------------------------|
-1111111111111111-1212121212-14141414-1818181818-19191919--------------------|
--x-x-x-x-x-x-x-x--x-x-x-x-x--x-x-x-x--x-x-x-x-x--x-x-x-x--------------------|
--9-9-9-9-9-9-9-9-1010101010-12121212-1616161616-17171717--0-----------------|


-----------------------------------------------------------------------------|
-------------------------------------------------------------------------|---|
-------------------------------------------------------------------------|---|
-11111111111111-12121212-7777777777--121212121212-777777777777-------x2--|---|
--x-x-x-x-x-x-x--x-x-x-x-xxxxxxxxxx---x-x-x-x-x-x-xxxxxxxxxxxx-----------|---|
--9-9-9-9-9-9-9-10101010-5555555555--101010101010-555555555555-----------|---|

------------------------------------------------------------------------------|
------------------------------------------------------------------------------|
------------------------------------------------------------------------------|
----77777777777777777---777777777777777---7777777777777777---7777777777777777-|
----xxxxxxxxxxxxxxxxx---xxxxxxxxxxxxxxx---xxxxxxxxxxxxxxxx---xxxxxxxxxxxxxxxx-|
----55555555555555555---555555555555555---5555555555555555---5555555555555555-|


------------------------------------------------------------------------------|
------------------------------------------------------------------------------|
------------------------------------------------------------------------------|
----99999999999999999---999999999999999---9999999999999999---9999999999999999-|
----xxxxxxxxxxxxxxxxx---xxxxxxxxxxxxxxx---xxxxxxxxxxxxxxxx---xxxxxxxxxxxxxxxx-|
----77777777777777777---777777777777777---7777777777777777---7777777777777777-|


------------------------------------------------------------------------------|
------------------------------------------------------------------------------|
------------------------------------------------------------------------------|
----66666666666666666---666666666666666---6666666666666666---6666666666666666-|
----xxxxxxxxxxxxxxxxx---xxxxxxxxxxxxxxx---xxxxxxxxxxxxxxxx---xxxxxxxxxxxxxxxx-|
----44444444444444444---444444444444444---4444444444444444---4444444444444444-|


------------------------------------------------------------------------------|
------------------------------------------------------------------------------|
------------------------------------------------------------------------------|
----33333333333333333---333333333333333---3333333333333333---3333333333333333-|
----xxxxxxxxxxxxxxxxx---xxxxxxxxxxxxxxx---xxxxxxxxxxxxxxxx---xxxxxxxxxxxxxxxx-|
----11111111111111111---111111111111111---1111111111111111---1111111111111111-|    

Added On December 4th, 2013

SHARE

Comments

blog comments powered by Disqus

ADVERTISEMENT