Goodnight Nurse Tabs

This Is It

1 versions

TAB

            Yo!

My 2nd tab, i'm at school atm but i'm bored and this is a damn good song!

Song: This Is It
Band: Goodnight Nurse
Album: Keep Me On Your Side

Guitar 1: Sam McCarthy
Guitar 2: Joel Little

Intro: 0:00-0:11
Guitar 1 Only:

e|------------------------------------------------------|
B|--6------6-----4-----4------6-----6-------7----7------|
G|------6-----6------6-----6------6------6-----6-----6--|
D|----6------6-----6-----6------8------8------8----8----|  x2
A|------------------------------------------------------|
E|------------------------------------------------------|

Band Comes In: 0:12-0:25
Guitar 1:
e|------------------------------------------------------|
B|--6------6-----4-----4------6-----6-------7----7------|
G|------6-----6------6-----6------6------6-----6-----6--|
D|----6------6-----6-----6------8------8------8----8----|  x2
A|------------------------------------------------------|
E|------------------------------------------------------|

Guitar 2:
e|--------------------------------|
B|--------------------------------|
G|--666666------------------------|
D|--666666-666666-888888-444444---|  x2
A|--444444-666666-888888-444444---|
E|---------444444-666666-222222---|

"Lets Take It All Away..": 0:26-0:43

"And I Know, This Is It..": 0:44-0:50
Guitar 2 Only:
e|--------------------------------|
B|--------------------------------|
G|--666666------------------------|
D|--666666-666666-888888-444444---|   (Palm Mute)
A|--444444-666666-888888-444444---|
E|---------444444-666666-222222---|

"Lets Take It Slow..": 0:51-0:57
Guitar 1:
e|---------------------|
B|---------------------|
G|--1313131313131313---|
D|---x-x-x-x-x-x-x-x---|
A|--1111111111111111---|
E|---------------------|

Guitar 2:
e|--------------------------------|
B|--------------------------------|
G|--666666------------------------|
D|--666666-666666-888888-444444---|   (Palm Mute)
A|--444444-666666-888888-444444---|
E|---------444444-666666-222222---|

Instrumental Interlude: 0:57-1:09
Guitar 1:
e|------------------------------------------------------|
B|--6------6-----4-----4------6-----6-------7----7------|
G|------6-----6------6-----6------6------6-----6-----6--|
D|----6------6-----6-----6------8------8------8----8----|  x2
A|------------------------------------------------------|
E|------------------------------------------------------|

Guitar 2:
e|--------------------------------|
B|--------------------------------|
G|--666666------------------------|
D|--666666-666666-888888-444444---|  x2
A|--444444-666666-888888-444444---|
E|---------444444-666666-222222---|

"Lets Have It All Our Way..": 1:10-1:28
Guitar 1 Only:
e|------------------------------------------|
B|------------------------------------------|
G|--666666666666----------------------------|
D|--666666666666-888888888888-444444444444--| x2
A|--444444444444-888888888888-444444444444--|
E|---------------666666666666-222222222222--|

Argh gotta scoot, the class is over, i'll come back asap and finish!! (:    

Added On December 16th, 2013

SHARE

Comments

blog comments powered by Disqus

ADVERTISEMENT