Gwyn Fowler Tabs

Patterns

1 versions

TAB

            Capo on 4. The song has the same plucking pattern throughout and repeats after the
written tab ends. The hardest part is the syncopation between the singing part and the guitar
part, but if you practice it slowly you should be able to get it down. You can play 
around a lot with the formation of the pattern, and create some nice variations.  If there
are any mistakes, let me know... I wrote the song but this is my first time writing out 
a tab! -gwyn


e|----3------3------3------3------3------3------3------3----3-----3---3---3-------|
B|----0------0------0------0------0------0------0------0----0-----0---0---0-------|
G|----0------0------0------0------0------0------0------0----0-----0---0---0-------|
D|-------------------------------------------------------------2------------------|
A|---------------------------------------------------------2h3------3---3p2-------|
E|-3------3------3------3------0------0------0------0-----------------------------|


e|----3------3------3------3------3------3------3------3------3------3------3-------|
B|----0------0------0------0------0------0------0------0------0------0------0-------|
G|----0------0------0------0------0------0------0------0------0------0------0-------|
D|----------------------------------------------------------------------------------|
A|----------------------------------------------------------------------------------|
E|-3------3------3------3------3------3------3------3------0------0------0----------|


e|---3-----3----3----3---3-----3------3------3-----------3---3----3------3-------------|
B|---0-----0----0----0---0-----0------0------0-----------0---0----0------0-------------|
G|---0-----0----0----0---0-----0------0------0-----------0---0----0------0-------------|
D|-----------2---------------------------------------------2---------------------------|
A|-------2h3------3----3p2-----------------------------2h3-----3------3----------------|
E|-0------------------------3------3------3------3-------------------------------------|

e|----3---3----3----3----3---3---3---3-------------------------------------------------|
B|----0---0----0----0----0---0---0---0-------------------------------------------------|
G|----0---0----0----0----0---0---0---0-------------------------------------------------|
D|------2------------------2-----------------------------------------------------------|
A|--2h3-----3----3-----2h3-----3---3p2-------------------------------------------------|
E|---------------------------------------3---------------------------------------------|    

Added On December 16th, 2013

SHARE

Comments

blog comments powered by Disqus

ADVERTISEMENT