Hello Goodbye Tabs

Here In Your Arms

1 versions

TAB

            Here In Your Arms Tab by Hello Goodbye


Verse
[guitar1]
e|---------------|
B|---------------|
G|-10--5--7--3---|
D|-10--5--7--3---|
A|-8---3--5--1---|
E|--------------|
pm............

[guitar 2]
e|----------8-------------8-------|
B|-----8------8-------8-----8-----|
G|--10---10-----10-9----9-----9---|
D|--------------------------------|
A|--------------------------------|
E|--------------------------------|

Chorus
[guitar 1]
e|----------------|
B|----------------|
G|----5--7--3-----|
D|-3--5--7--3-x2--|
A|-3--3--5--1-----|
E|-1--------------|

[guitar 2] (the second chorus)
e|----------------------------------------|
B|--6/8-6/8-6--5-6-6-5-6-6----------------|
G|----------------------------------------|
D|---------------------------x4-----------|
A|----------------------------------------|
E|----------------------------------------|

Pre-Chorus
e|----------------|
B|----------------|
G|-12-12-12--10---|
D|-x--x--x---x----|
A|-10-10-10--10---|
E|----------------|

Bridge
[guitar 1] = the verse

[guitar 2]
e|-------------------------------------------------------------------------|
B|--6-6-10-8--6-6-8-8-6-----6-6-5------3-3-1-------------------------------|
G|----------------------7-7--------5-5-------------------------------------|
D|-------------------------------------------------------------------------|
A|-------------------------------------------------------------------------|
E|-------------------------------------------------------------------------|
 pm..........................................-----------------------    

Added On December 4th, 2013

SHARE

Comments

blog comments powered by Disqus

ADVERTISEMENT