Hidden In Plain View Tabs

Ferris Wheel

1 versions

TAB

            Ferris Wheel Tab by Hidden In Plain View


Band: Hidden In Plain View
Song: Ferris wheel
Tuning: Standard
Tabbed by: Gary

This is a sweet song by HIPV. If you don’t have it
just e-mail me at changeofpace341@aim.com and I will
send it to you. Also feel free to email me any corrections
you think you may have for the tab.

Im pretty new to tabbing so this took a little while
to do but it came out well.


Intro Pt.1
e--------------|
B-33333333333--| (these are twelve’s)
G-77777777777--|
D--------------| do this a couple of times
A--------------|
E--------------|

Guitar 1
e----------------------------------------|
B----------10-10-8-7-7-5-5-5-7-7-7-8-8-8-|
G--7-7-7---------------------------------|x3
D----------------------------------------|
A----------------------------------------|
E----------------------------------------|
Pm ................................

Guitar 1
e-------------------------------------------------|
B----------10-10-10-10-10---3-5-7-7/8-7-5---------|
G--7-7-7------------------------------------------|
D-------------------------------------------------|
A-------------------------------------------------|
E-------------------------------------------------|

Intro Pt. 2

Guitar 2 (enters at the end of the intro above and cont. below)
e-----------|---------------------------------|      |---|
B-----------|---------------------------------|      |---|
G-----------|--777777-------------------------|      |-7-|
D-555555555-|--777777-777777-999999-555555-x2-|end on|-7-|
A-555555555-|--555555-777777-999999-555555----|      |-5-|
E-333333333-|---------555555-777777-333333----|      |---|
Pm........
Guitar 1
e----------------------------------10-----|
B----10-8-7-5-7-8-10--10-8-7-5-7-8--------|
G--7-----------------7--------------------|
D-----------------------------------------|
A-----------------------------------------|
E-----------------------------------------|


e-----------------------------------|
B------10-8-7-5-7-8-7-5-3-3/5-3-----|
G—5/7-------------------------------|
D-----------------------------------|
A-----------------------------------|
E-----------------------------------|

*Part With No Guitar*


Verse

Guitar 1
e--------------------------------------------10---|
B-----10-8-7-5-8-7-5-3--10-8-7-5-8-7-5-3-8-7------|
G---7---------------------------------------------|
D-------------------------------------------------|
A-------------------------------------------------|
E-------------------------------------------------|

Guitar 2
e-------|---------------------------------|
B-------|---------------------------------|
G-------|--777777-------------------------|
D-55555-|--777777-777777-999999-555555-x2-|
A-55555-|--555555-777777-999999-555555----|
E-33333-|---------555555-777777-333333----|
Pm....

Pre-Chorus
e----------------|
B----------------|
G----------------|
D-55555555555555-|x3
A-55555555555555-| bridge leads straight into chorus
E-33333333333333-|
Pm  ...........

Chorus

e-------|---------------------------------|
B-------|---------------------------------|
G-------|--777777-------------------------|
D-55555-|--777777-777777-999999-555555-x2-|
A-55555-|--555555-777777-999999-555555----|
E-33333-|---------555555-777777-333333----|
Pm....

Now play everything again starting from Intro 2.

The lead guitar has some slight changes but all the same notes are used so it should be 
for you to figure out if you just listen to the song.    

Added On December 4th, 2013

SHARE

Comments

blog comments powered by Disqus

ADVERTISEMENT