TAB

            It's so easy

Intro: Use delay

----------------------------|
--(10)-(11)-(12)-(13)-(14)--|
--(10)-(11)-(12)-(13)-(14)--|
----------------------------|
----------------------------|
----------------------------|

Followed by:

--6-6-6-6-4-6-7-6-6---------------|
--------------------7-9-6---------|
----------------------------------|
----------------------------------|
----------------------------------|
----------------------------------|

--6-6-6-6-4-6-7-6-6-----9---------|
--------------------7-9-----------|
----------------------------------|
----------------------------------|
----------------------------------|
----------------------------------|

verse
Verse 1: 2nd guitar power chords

Pre-chorus: strum
------------------|
-11--9---12-------|
-11--11--11-------|
------------------|
------------------|
------------------|

verse 2
keep strumming
----------------------------------|
-(11)-(12)-(11)-(9)---------------|
----------------------------------|
----------------------------------|
----------------------------------|
----------------------------------|

Pre-chorus: same notes
(Low down your volume this time)

Chorus:
--------------------|
----7-7-6-6---------|
-6-6-------6-6------| 3x
--------------------|
--------------------|
--------------------|

--------------------|
--------------------|
-8-8-8-10-10-10-6-6-|
--------------------|
--------------------|
--------------------|

--------------------|
----7-7-6-6---------|
-6-6-------6-6------| 3x
--------------------|
--------------------|
--------------------|

-----------------------|
-----------------------|
-8-8-8-10-10-10-10s11--|
-----------------------|
-----------------------|
-----------------------|

Instrumental:

Strum
--------------|
-----11-------|
-----11-------|
--------------|
--------------|
--------------|

Riff: delay and Palm muting
-----------------------------------|
-----------------------------------|
------11-11-10-10------------------|
-11-11-----------11-11-13-13-13----|
-----------------------------------|
-----------------------------------|

-----------------------|
-----------------------|
-10-10-----------------| rpt 9x
------13-11-11---------|
-----------------------|
-----------------------|

End Riff
-----------------------|
-----------------------|
------11-11-10-10------| 3x
-11-11-----------11-11-|
-----------------------|
-----------------------|

-----------|
-----------|
-----------|
-13-13--11-|
-----------|
-----------|

Ai siro!!!    

Added On December 16th, 2013

SHARE

Comments

blog comments powered by Disqus

ADVERTISEMENT