HIM Tabs

Dead Lovers Lane

3 versions

TAB

            HIM - Dead Lover's Lane
Venus Doom

Tuning: EADGBE

Intro:
E|-----------------|-----------------|                                    
B|-6/5-------------|-6/5-------------|                                    
G|-----7~~~--------|-----5~~~--------|   x2                              
D|-----------------|-----------------|                                   
A|-----------------|-----------------|                                     
E|-----------------|-----------------|                           
   



Main Riff:
E|-----------------|-----------------|-----------------|----------------|
B|-----------------|-----------------|-----------------|----------------|
G|-----------------|-----------------|-----------------|----------------|     x2
D|-----------------|----------5-4----|-----------------|---------5-4----|
A|-------5-7-------|-5-7----------5~-|-------5-7-------|-5-7---------5~-|
E|-0-5-7-----0-5-7-|-----5-7---------|-0-5-7-----0-5-7-|-----5-7--------|
    

Em      D                 Em      D  
Despair has a face
    C         G             Am           
	And all these wounds remain unhealed
Em    D                     Em   D
	Bless the killed and enslaved
       C       G/H                  Am
	Our own hearts are our love’s will
         G/H       C                D
     	Thrilled to start all over again

Chorus:
E|---------------|---------------|------------------|-------------------|
B|---------------|---------------|------------------|-------------------|
G|---------------|---------------|-5-5-7-7-9-9-12-12|-------------------|     
D|-0~~~/12-12-12-|-0~~~/12-12-12-|-x-x-x-x-x-x-x-x-x|-5~~~4~------------|
A|-0~~~/12-12-12-|-0~~~/12-12-12-|-3-3/5-5/7-7/10-10|-5~~~4~4-4-4-4-5-4-|
E|-0~~~/10-10-10-|-0~~~/10-10-10-|------------------|-3~~~2~2-2-2-2-3-2-|
                                                . . . 

Crawl down dead lover's lane,
The maze of memories stained
And it sucked the blood right out of my heart


Main Riff


Em      D              Em      D  
	Fear has a name  
                        C         G                   Am           
	Written on our unhollowed ground with their leaves
Em      D                   Em      D  
	Those words never fail
             C       G/H             Am
	To feed your hunger that dream   
              G/H     C           D
	Are needs beyond God’s grasp

Chorus:

Crawl down dead lover's lane
The maze of memories stained
And it sucks the blood right out of my heart
Scream out love's name in vain
Erase the pain again
And move yourself across the dark

Dead lover's lane
Crawl down dead lover's lane,
The maze of memories stained
And it sucks the blood right out of my heart
Scream out love's name in vain
Erase the pain again
And move yourself across the dark
And it sucks the blood right of my heart
Right out of my heart



iiro.sipola@gmail.com    

Added On December 16th, 2013

SHARE

Comments

blog comments powered by Disqus

VERSIONS

ADVERTISEMENT