HIM Tabs

Face Of God

2 versions

TAB

            Face Of God Chords by Him

Alright... this is song is pretty easy to play once you get it....I'm surprised no one 
get this anyway here it is.

Standard Tuning

Intro:

12x(fast) (I think) 4x(faster than before than before)   Repeat this 7 times
D--2------------0-|
A--2------------1-|
E--0--------------|


Verse:
I Kinda didnt get it that much but what I have is good enough trust me
[--Em-][-G-] [-Em-----------------------------------------------|[-D-][-C-][G]  [-Em-][-D-]    [D]
---------------------------------------------------------2------| prechorus
-----------------0------3--1----0------0-----3-----3------------|Or3
-----0----0----0--0----2----0----0------0---2------3-----2------|
----2-2--0------------0------2-------------0-------3-----0------|
--------------2-----------3-----------2------------5-----0------|
---0----3----------------------3-----0-------------5-----0------|

prechorus:
   C
C
e |---|---|-x-|---|---|
B |-x-|---|---|---|---|
G |---|---|---|---|---|
D |---|-x-|---|---|---|
A |---|---|-x-|---|---|
E |---|---|---|---|---|
G
G
e |---|---|-x-|---|---|
B |---|---|---|---|---|
G |---|---|---|---|---|
D |---|---|---|---|---|
A |---|-x-|---|---|---|
E |---|---|-x-|---|---|
D
D
e |---|-x-|---|---|---|
B |---|---|-x-|---|---|
G |---|-x-|---|---|---|
D |---|---|---|---|---|
A |---|---|---|---|---|
E |---|---|---|---|---|
GGG C
C
e |---|---|-x-|---|---|
B |-x-|---|---|---|---|
G |---|---|---|---|---|
D |---|-x-|---|---|---|
A |---|---|-x-|---|---|
E |---|---|---|---|---|
(play those chords) I'd kill to share your pain (And carry the shame) C
C
e |---|---|-x-|---|---|
B |-x-|---|---|---|---|
G |---|---|---|---|---|
D |---|-x-|---|---|---|
A |---|---|-x-|---|---|
E |---|---|---|---|---|
G
G
e |---|---|-x-|---|---|
B |---|---|---|---|---|
G |---|---|---|---|---|
D |---|---|---|---|---|
A |---|-x-|---|---|---|
E |---|---|-x-|---|---|
D
D
e |---|-x-|---|---|---|
B |---|---|-x-|---|---|
G |---|-x-|---|---|---|
D |---|---|---|---|---|
A |---|---|---|---|---|
E |---|---|---|---|---|
Em
Em
e |---|---|---|---|---|
B |---|---|---|---|---|
G |---|---|---|---|---|
D |---|-x-|---|---|---|
A |---|-x-|---|---|---|
E |---|---|---|---|---|
And sell my soul for you just to say Chorus: (play the intro here until said so) I dream what you're dreaming And feel what you're feeling C
C
e |---|---|-x-|---|---|
B |-x-|---|---|---|---|
G |---|---|---|---|---|
D |---|-x-|---|---|---|
A |---|---|-x-|---|---|
E |---|---|---|---|---|
G
G
e |---|---|-x-|---|---|
B |---|---|---|---|---|
G |---|---|---|---|---|
D |---|---|---|---|---|
A |---|-x-|---|---|---|
E |---|---|-x-|---|---|
Love's our shadow on the wall D
D
e |---|-x-|---|---|---|
B |---|---|-x-|---|---|
G |---|-x-|---|---|---|
D |---|---|---|---|---|
A |---|---|---|---|---|
E |---|---|---|---|---|
Em
Em
e |---|---|---|---|---|
B |---|---|---|---|---|
G |---|---|---|---|---|
D |---|-x-|---|---|---|
A |---|-x-|---|---|---|
E |---|---|---|---|---|
With the face ooooooOOOoooOOOf god Interlude:I got lazy and didnt do a very good job on this but is sounds good (this is all in Em) Repeat this as many times as it is played D--2-let ring--2/4--0h2-2-2/4--0h2-| A--2-let ring----------------------| E----let ring----------------------| (Rythm) Interlude : Just play Em like this( -v--vvvvv-vvvvv-- ) U have to mute this ok figure out your own way onto how to change notes when you get to the pre.

Added On December 4th, 2013

SHARE

Comments

blog comments powered by Disqus

VERSIONS

ADVERTISEMENT