Hinder Tabs

Room 21

2 versions

TAB

            Hinder - Room 21


Intro
e|-x-x------------------------------------------|
B|-x-x------------------------------------------|
G|-x-x-3-3-----5-5-5-5-3----3-3-----5-5-5-5-3---|
D|-x-x-3-3-3-5-5-5-5-5-3-3--3-3-3-5-5-5-5-5-3-3-|
A|-x-x-1-1-3-5-3-3-3-3-1-3--1-1-3-5-3-3-3-3-1-3-|
E|-x-x-----1-3-----------1------1-3-----------1-|

e|------------------------------------------|
B|------------------------------------------|
G|-3-3-----5-5-5-5-3----3-3-----5-5-5-5-3---|
D|-3-3-3-5-5-5-5-5-3-3--3-3-3-5-5-5-5-5-3-3-|
A|-1-1-3-5-3-3-3-3-1-3--1-1-3-5-3-3-3-3-1-3-|
E|-----1-3-----------1------1-3-----------1-|


Verse 1
e|---------------------------------|---------------------------------|
B|---------------------------------|---------------------------------|
G|---------5-5-5-5-3-3-3-3---------|---------5-5-5-5---------5-5-5-5-|
D|-5-5-5-5-5-5-5-5-3-3-3-3-3-3-3-3-|-5-5-5-5-5-5-5-5-5-5-5-5-5-5-5-5-|
A|-5-5-5-5-3-3-3-3-1-1-1-1-3-3-3-3-|-5-5-5-5-3-3-3-3-5-5-5-5-3-3-3-3-|
E|-3-3-3-3-----------------1-1-1-1-|-3-3-3-3---------3-3-3-3---------|

e|---------------------------------|
B|---------------------------------|
G|-3-3-3-3-5-5-5-5-3-3-3-3-5-5-5-5-|
D|-3-3-3-3-5-5-5-5-3-3-3-3-5-5-5-5-|
A|-1-1-1-1-3-3-3-3-1-1-1-1-3-3-3-3-|
E|---------------------------------|


Chorus
e|------------------------------------------|
B|------------------------------------------|
G|-3-3-----5-5-5-5-3----3-3-----5-5-5-5-3---|
D|-3-3-3-5-5-5-5-5-3-3--3-3-3-5-5-5-5-5-3-3-|
A|-1-1-3-5-3-3-3-3-1-3--1-1-3-5-3-3-3-3-1-3-|
E|-----1-3-----------1------1-3-----------1-|

e|-----------------|
B|-----------------|
G|-3-3-3-3-5-5-5-5-|
D|-3-3-3-3-5-5-5-5-|
A|-1-1-1-1-3-3-3-3-|
E|-----------------|

e|---------------------------------------------------------------|
B|---------------------------------------------------------------|
G|-3-3-----5-5-5-5-3----3-3-----5-5-5-5-3----3-3-----5-5-5-5-3---|
D|-3-3-3-5-5-5-5-5-3-3--3-3-3-5-5-5-5-5-3-3--3-3-3-5-5-5-5-5-3-3-|
A|-1-1-3-5-3-3-3-3-1-3--1-1-3-5-3-3-3-3-1-3--1-1-3-5-3-3-3-3-1-3-|
E|-----1-3-----------1------1-3-----------1-----1-3------------1-|

e|-----------------|---------------------|
B|-----------------|---------------------|
G|-3-3-3-3-5-5-5-5-|-3-3-----5-5-5-5-3---|
D|-3-3-3-3-5-5-5-5-|-3-3-3-5-5-5-5-5-3-3-|
A|-1-1-1-1-3-3-3-3-|-1-1-3-5-3-3-3-3-1-3-|
E|-----------------|-----1-3-----------1-|


Verse 2
e|---------------------------------|---------------------------------|
B|---------------------------------|---------------------------------|
G|---------5-5-5-5-3-3-3-3---------|---------5-5-5-5---------5-5-5-5-|
D|-5-5-5-5-5-5-5-5-3-3-3-3-3-3-3-3-|-5-5-5-5-5-5-5-5-5-5-5-5-5-5-5-5-|
A|-5-5-5-5-3-3-3-3-1-1-1-1-3-3-3-3-|-5-5-5-5-3-3-3-3-5-5-5-5-3-3-3-3-|
E|-3-3-3-3-----------------1-1-1-1-|-3-3-3-3---------3-3-3-3---------|

e|---------------------------------|
B|---------------------------------|
G|-3-3-3-3-5-5-5-5-3-3-3-3-5-5-5-5-|
D|-3-3-3-3-5-5-5-5-3-3-3-3-5-5-5-5-|
A|-1-1-1-1-3-3-3-3-1-1-1-1-3-3-3-3-|
E|---------------------------------|


Chorus
e|------------------------------------------|
B|------------------------------------------|
G|-3-3-----5-5-5-5-3----3-3-----5-5-5-5-3---|
D|-3-3-3-5-5-5-5-5-3-3--3-3-3-5-5-5-5-5-3-3-|
A|-1-1-3-5-3-3-3-3-1-3--1-1-3-5-3-3-3-3-1-3-|
E|-----1-3-----------1------1-3-----------1-|

e|-----------------|
B|-----------------|
G|-3-3-3-3-5-5-5-5-|
D|-3-3-3-3-5-5-5-5-|
A|-1-1-1-1-3-3-3-3-|
E|-----------------|

e|---------------------------------------------------------------|
B|---------------------------------------------------------------|
G|-3-3-----5-5-5-5-3----3-3-----5-5-5-5-3----3-3-----5-5-5-5-3---|
D|-3-3-3-5-5-5-5-5-3-3--3-3-3-5-5-5-5-5-3-3--3-3-3-5-5-5-5-5-3-3-|
A|-1-1-3-5-3-3-3-3-1-3--1-1-3-5-3-3-3-3-1-3--1-1-3-5-3-3-3-3-1-3-|
E|-----1-3-----------1------1-3-----------1-----1-3------------1-|

e|-----------------|
B|-----------------|
G|-3-3-3-3-5-5-5-5-|
D|-3-3-3-3-5-5-5-5-|
A|-1-1-1-1-3-3-3-3-|
E|-----------------|

Solo (dont kno so ill just put the rythem)
e|------------------------------------------|
B|------------------------------------------|
G|-3-3-----5-5-5-5-3----3-3-----5-5-5-5-3---|
D|-3-3-3-5-5-5-5-5-3-3--3-3-3-5-5-5-5-5-3-3-|
A|-1-1-3-5-3-3-3-3-1-3--1-1-3-5-3-3-3-3-1-3-|
E|-----1-3-----------1------1-3-----------1-|

e|------------------------------------------|
B|------------------------------------------|
G|-3-3-----5-5-5-5-3----3-3-----5-5-5-5-3---|
D|-3-3-3-5-5-5-5-5-3-3--3-3-3-5-5-5-5-5-3-3-|
A|-1-1-3-5-3-3-3-3-1-3--1-1-3-5-3-3-3-3-1-3-|
E|-----1-3-----------1------1-3-----------1-|


Chorus and Outro
e|------------------------------------------|
B|------------------------------------------|
G|-3-3-----5-5-5-5-3----3-3-----5-5-5-5-3---|
D|-3-3-3-5-5-5-5-5-3-3--3-3-3-5-5-5-5-5-3-3-|
A|-1-1-3-5-3-3-3-3-1-3--1-1-3-5-3-3-3-3-1-3-|
E|-----1-3-----------1------1-3-----------1-|

e|-----------------|
B|-----------------|
G|-3-3-3-3-5-5-5-5-|
D|-3-3-3-3-5-5-5-5-|
A|-1-1-1-1-3-3-3-3-|
E|-----------------|

e|---------------------------------------------------------------|
B|---------------------------------------------------------------|
G|-3-3-----5-5-5-5-3----3-3-----5-5-5-5-3----3-3-----5-5-5-5-3---|
D|-3-3-3-5-5-5-5-5-3-3--3-3-3-5-5-5-5-5-3-3--3-3-3-5-5-5-5-5-3-3-|
A|-1-1-3-5-3-3-3-3-1-3--1-1-3-5-3-3-3-3-1-3--1-1-3-5-3-3-3-3-1-3-|
E|-----1-3-----------1------1-3-----------1-----1-3------------1-|

e|-----------------|
B|-----------------|
G|-3-3-3-3-5-5-5-5-|
D|-3-3-3-3-5-5-5-5-|
A|-1-1-1-1-3-3-3-3-|
E|-----------------|

e|---------------------------------------------------------------|
B|---------------------------------------------------------------|
G|-3-3-----5-5-5-5-3----3-3-----5-5-5-5-3----3-3-----5-5-5-5-3---|
D|-3-3-3-5-5-5-5-5-3-3--3-3-3-5-5-5-5-5-3-3--3-3-3-5-5-5-5-5-3-3-|
A|-1-1-3-5-3-3-3-3-1-3--1-1-3-5-3-3-3-3-1-3--1-1-3-5-3-3-3-3-1-3-|
E|-----1-3-----------1------1-3-----------1-----1-3------------1-|

e|---------------------------------------------------------------|
B|---------------------------------------------------------------|
G|-3-3-----5-5-5-5-3----3-3-----5-5-5-5-3----3-3-----5-5-5-5-3---|
D|-3-3-3-5-5-5-5-5-3-3--3-3-3-5-5-5-5-5-3-3--3-3-3-5-5-5-5-5-3-3-|
A|-1-1-3-5-3-3-3-3-1-3--1-1-3-5-3-3-3-3-1-3--1-1-3-5-3-3-3-3-1-3-|
E|-----1-3-----------1------1-3-----------1-----1-3------------1-|

e|----------------------------------|
B|----------------------------------|
G|-5-5-5-5-5-5-5-5~-------------5-5-|
D|-5-5-5-5-5-5-5-5~-------------5-5-|
A|-3-3-3-3-3-3-3-3~-------------3-3-|
E|----------------------------------|

THE END!

plz leave a rating or comment thanx!    

Added On December 16th, 2013

SHARE

Comments

blog comments powered by Disqus

VERSIONS

ADVERTISEMENT