Hives Tabs

Main Offender

5 versions

TAB

            Main Offender Tab by Hives


------------------------------------------------------------------------------
			     Main Offender - The Hives					
-------------------------------------------------------------------------------

By: Studio 54
walrus1141@hotmail.com

  intro:           Main killer riff:   
e|--------------------------------------------------------------------------------|
B|--------------------------------------------------------------------------------|
G|--------------------10-12------------------10-12-------------------10-12--------|
D|-12------8-10-11-12-10-12-7-8-----10-11-12-10-12-7-8---------11-12-10-12--------|
A|-12------8-10-11-12--8-10-7-8--8--10-11-12--8-10-7-8-8---10--11-12--8-10-(etc)--|
E|-10(4x)--6--8--9-10-------5-6-6-6--8--9-10-------5-6--6-8--8--9-10--------------|


  chorus part:
e|---------------------------------------------------------------------------|
B|---------------------------------------------------------------------------|
G|-----------77777777-----------------------------------7777777--------------|
D|-777777777-77777777-33333333-5555555-5-4-5-6-77777777-7777777-3------------|
A|-777777777-55555555-33333333-5555555-5-4-5-6-77777777-5555555-3------------|
E|-555555555----------11111111-3333333-3-2-3-4-55555555---------1-(let ring)-|

These are the main parts of the way the song goes.   The single notes in
the main riff should be right and should do the trick for getting this song down.
You may find yourself having to add another (6) or (8) to help with timing..
Chris    

Added On December 4th, 2013

SHARE

Comments

blog comments powered by Disqus

VERSIONS

ADVERTISEMENT