TAB

            Drop D

e]-------------------------------------------|
b]-------------------------------------------|
g]-------------------------------------------| [ Single Guitar ] Arpeggios
d]---------8---7----5-----------5------------|
a]-0-0-------7---7-----8--7--8------8--7--5--|
d]-0-0---------------------------------------|

[2 Guitars]

e]------|
b]------|
g]------|
d]------|
a]-0-0--|
d]-0-0--|

e]--------------------------------------------|
b]--------------------------------------------|
g]--------------------------------------------|
d]-------8-----7-----5-----------5------------|
a]-7--7-----7-----7-----8--7--8------8--7--5--|
d]--------------------------------------------|

e]--------------------|
b]--------------------|
g]--------------------|  [ Background ]
d]-----------8~--7~---|
a]-5~-7~-8~-----------|
d]--------------------|

Effects: Vib, Synth, and there might be more.    

Added On December 16th, 2013

SHARE

Comments

blog comments powered by Disqus

ADVERTISEMENT