Hope Of The States Tabs

American Revoloution

1 versions

TAB

            American Revolution

I'm making an attempt to get as many HOTS tabs together as I can and I found this one 
around and thought it may help someone on here.

e-------10--7-------|
b-----7-------7---7-|
g---7-----------7---|
d-9-----------------|  x4
a-------------------|
e-------------------|

e-------0--------0--------0-------0-|
b-----6--------6--------6-------6---|
g---7--------7--------7-------7-----|
d-8--------8--------8-------8-------|
a-----------------------------------|
e-----------------------------------|

e-------0--------0--------0-------0-|
b-----6--------6--------6-------6---|
g---7--------7--------7-------7-----|
d-7--------7--------7-------7-------|
a-----------------------------------|
e-----------------------------------|    

Added On December 16th, 2013

SHARE

Comments

blog comments powered by Disqus

ADVERTISEMENT