Horrorpops Tabs

Drama Queen

3 versions

TAB

            Drama Queen Tab by Horrorpops


-------------------------------------------------------------------------------
			     Drama Queen - Horrorpops
-------------------------------------------------------------------------------
Tabbed by: Mike J


Tuning: Standard

Intro/Verse
e|--------------------|
B|--------------------|
G|-5-5-7-7-10-10-9-9--|
D|-5-5-7-7-10-10-9-9--|
A|-3-3-5-5-8--8--7-7--|
E|--------------------|

Pre Chorus
e|--------------------------------------------|
B|--------------------------------------------|
G|-5-5-5-5-5-5-7-7-7-7-7-7-10-10-10-10-10-10--|
D|-5-5-5-5-5-5-7-7-7-7-7-7-10-10-10-10-10-10--|
A|-3-3-3-3-3-3-5-5-5-5-5-5--8--8--8--8--8--8--|
E|--------------------------------------------|

Chorus
e|-------------------------------------------------------|
B|-------------------------------------------------------|
G|-5-5-5-5-5-5-7-7-7-7-7-7-10-10-10-10-10-10-9-9-9-9-9-9-|
D|-5-5-5-5-5-5-7-7-7-7-7-7-10-10-10-10-10-10-9-9-9-9-9-9-|
A|-3-3-3-3-3-3-5-5-5-5-5-5-8--8--8--8--8--8--7-7-7-7-7-7-|
E|-------------------------------------------------------|

Bridge
e|-------------------------|
B|-------------------------|
G|-5~------8~--5~------8~--|
D|-5~--5~--8~--5~--5~--8~--|
A|-3~--5~--6~--3~--5~--6~--|
E|-----3~----------3~------|

Solo - I have no idea, sounds like its in C    

Added On December 4th, 2013

SHARE

Comments

blog comments powered by Disqus

VERSIONS

ADVERTISEMENT