Horrorpops Tabs

Hit N Run

1 versions

TAB

            -------------------------------------------------------------------------------
			     HIT 'N RUN - Horrorpops
-------------------------------------------------------------------------------
Tabbed by: Grace Graves
Email: Pyro.Electro@yahoo.com

Tuning: Standard


INTRO
e|---------------------------------------------------------------------------|
B|--5-5---------5-------------66-888-101010-8-6-66666665555--------5---------|
G|--5-4-5-575----75-4--454--3--------------------------------4-5-7-----------|
D|------------5-----5-5---5--------------------------------------------------|
A|---------------------------------------------------------------------------|
E|---------------------------------------------------------------------------|


VERSE (JUST PLAY CHORUS PALM MUTED WITH THIS ADDED IN)
e|---------------------------------------------------------------------------|
B|---------------------------------------------------------------------------|
G|---------------------------------------------------------------------------|
D|--5-3-2~---5-3-2~----------------------------------------------------------|
A|---------------------------------------------------------------------------|
E|---------------------------------------------------------------------------|


CHORUS
e|---------------------------------------------------------------------------|
B|---------------------------------------------------------------------------|
G|--5555555555555555-----------------------------------77777777-66666666-----|
D|--5555555555555555-2222222222222222-3333333333333333-77777777-66666666-----|
A|--3333333333333333-2222222222222222-3333333333333333-55555555-44444444-----|
E|-------------------0000000000000000-1111111111111111-----------------------|


| /  slide up
| \  slide down
| h  hammer-on
| p  pull-off
| ~  vibrato
| +  harmonic
| x  Mute note
===============================================================================    

Added On December 16th, 2013

SHARE

Comments

blog comments powered by Disqus

ADVERTISEMENT