Horse The Band Tabs

Crow Town

1 versions

TAB

            Horse the Band - Crow Town

e-------------------------------------------------|
b-------------------------------------------------|
g-------------------------------------------------|
d---------3~~~~-------3p2h3-----------------------|
a------0-----------0------------------------------|
D---0-----------0---------------------------------| x3

e------|--------------------------------------------|
b------|--------------------------------------------|
g------|--------------------------------------------|
d------|---3----------------3-----------------------|
a--3-5-|-------5---5-3-5--------5--------3-4-5------|
D------|-0---5---5--------0---3---3--4-5------------| x5


Heavy Distortion
e------|--------------------------------------------|
b------|--------------------------------------------|
g--5-7-|--------------------------------------------|
d--5-7-|---3----------------3-----------------------|
a--3-5-|-------5---5-3-5--------5--------3-4-5------|
D------|-0---5---5--------0---3---3--4-5------------| [repeat until end of song]


[Solo]
e--------------------------------------------------|
b-----------------6--------------------------------|
g-------------5-7----------------------------------|
d---------3-5--------------------------------------|
a-----3-5------------------------------------------|
D-5-7----------------------------------------------|


The solo is not right, but it was my best attempt, it's quite difficult to hear but it's 
the end of the song    

Added On December 16th, 2013

SHARE

Comments

blog comments powered by Disqus

ADVERTISEMENT