Horse The Band Tabs

Heroes Die

1 versions

TAB

            Heroes Die Tab by Horse The Band


-------------------------------------------------------------------------------
			     Heroes Die - Horse the Band
-------------------------------------------------------------------------------
This is for all the guys without guitar pro.
Enjoy.

Tabbed by: Test	
Email: Seargentkitty69@aim.com

Tuning: Drop D

e|---------------------------------------------------------------------------|
B|-------------------6--------------------------------------6----------------|
G|---------------------------7~~~~~~-------------------------------7~~~~~~---|
D|---------------------------------------------------------------------------|
A|---------------------------------------------------------------------------|
D|-0---------0-----------------------------0-------0-------------------------|

e|---------------------------------------------------------------------------|
B|-------------------5--------------------------------------6----------------|
G|---------------------------5~~~~~~-------------------------------7~~~~~~---|
D|---------------------------------------------------------------------------|
A|---------------------------------------------------------------------------|
D|-0---------0-----------------------------0-------0-------------------------|

e|---------------------------------------------------------------------------|
B|-----------------------------6---------------------------------------------|
G|------------------------------------7--------------------------------------|
D|---------------------------------------------------------------------------|
A|---------------------------------------------------------------------------|
D|---3----2----0---------0---------------------------------------------------|

and it just repeats
if it doesnt sound right then your wrong 
the D string not does not change
thats the bass that plays the F and G
(3rd,5th fret)
but if sounds better to you go ahead and 
add those two notes.
if you think im wrong watch it live on youtube 
you can tell that its open the whole time

| /  slide up
| \  slide down
| h  hammer-on
| p  pull-off
| ~  vibrato
| +  harmonic
| x  Mute note
===============================================================================    

Added On December 4th, 2013

SHARE

Comments

blog comments powered by Disqus

ADVERTISEMENT