Horse The Band Tabs

Rotting Horse

1 versions

TAB

            d------------------------------------------------|
a------------------------------------------------|
f------------------------------------------------|
c-----3---0------3---0---------------------------|
g---0---0------0---0-----------------------------|
C-0----------0-----------------------------------|


d------------------------------------------------|
a------------------------------------------------|
f-----2-----2-----2-----2------------0-----------|
c--------------------------------------2---------|
g-0-3---0-3---0-3---0-3------0-3-0-2-----2-------|
C--------------------------2---------------------|


d------------------------------------------------|
a------------------------------------------------|
f-----------0------------------------------------|
c-------------2--------0-----0-------------------|
g---0-3-0-2-----2----0-----0-------0-----0---0---|
C-2----------------5-----5-----5-5---5-3---2---0-|


This riff is repeated for the whole instrumental.    

Added On December 16th, 2013

SHARE

Comments

blog comments powered by Disqus

ADVERTISEMENT