Husker Du Tabs

Green Eyes

1 versions

TAB

            tabbed by: mike stubbs

tuning: standard EADGBe

capo: 1st fret

not too sure on the intro but this my effort for the rest.

verse

e------------------------------------------|
B---3--3---3------------3--3---3-----------|
G---2--2---2-2-------2--2--2---2-2-------2-|
D---0--0---0-2-------2--0--0---0-2-------2-|
A------------0-------0-----------0-------0-|
E------------------------------------------|
It's a great big world, There's a million other guys


e-----------------------2--2---2-2-------2-|
B---3--3---3------------3--3---3-2-------2-|
G---2--2---2-2-------2--4--4---4-3-------3-|
D---0--0---0-2-------2--4--4---4-4-------4-|
A------------0-------0--2--2---2-4-------4-|
E-----------------------2--2---2-2-------2-|
I feel so lucky when I look in those green eyes



e------------------------------------------|
B---3--3---3------------3--3---3-----------|
G---2--2---2-2-------2--2--2---2-2-------2-|
D---0--0---0-2-------2--0--0---0-2-------2-|
A------------0-------0-----------0-------0-|
E------------------------------------------|
Is it the sun,      That makes them so green


e-----------------------2--2---2-2-------2-|
B---3--3---3------------3--3---3-2-------2-|
G---2--2---2-2-------2--4--4---4-3-------3-|
D---0--0---0-2-------2--4--4---4-4-------4-|
A------------0-------0--2--2---2-4-------4-|
E-----------------------2--2---2-2-------2-|
Those are the prettiest eyes I have ever seen    

Added On December 16th, 2013

SHARE

Comments

blog comments powered by Disqus

ADVERTISEMENT