Ian Brown Tabs

Set My Baby Free

1 versions

TAB

            Set my baby free
Ian Brown


intro and riff

E-----------------|
B-10-10-----------|
G-------7---------|  X 10 or so
D-----------------|
A-----------------|
E-----------------|

E---------8-------|-------------8---|-8-8-8-----------|--------8--8-8-8-|
B-----10----10----|-8-10---8-10-----|-------10-8-10---|---8-10----------|
G-7---------------|-----------------|-----------------|-7---------------|
D-----------------|-----------------|-----------------|-----------------|
A-----------------|-----------------|-----------------|-----------------|
E-----------------|-----------------|-----------------|-----------------|

E--------------8--|-8-8-8------------|8--8-8-8---------|
B-10-8----8-10----|-------10-8---8-10|-----------------|
G-------7---------|------------7-----|-----------------|
D-----------------|------------------|-----------------|
A-----------------|------------------|-----------------|
E-----------------|------------------|-----------------|    

Added On December 16th, 2013

SHARE

Comments

blog comments powered by Disqus

ADVERTISEMENT