Ice Cube Tabs

Natural Born Killaz

1 versions

TAB

            -------------------------------------------------------------------------------
                  NATURAL BORN KILLAZ - Ice Cube and Dr. Dre
-------------------------------------------------------------------------------
Tabbed by: steveoMachino

Tuning: Standard

Guitar:

e|----------------13-------------------|
B|--9-10h11p10-9--------9p8-12p9-10p8--|
G|-------------------------------------|
D|-------------------------------------|
A|-------------------------------------|
E|-------------------------------------|

e|------11-10----------|
B|--9-----------8---7--|
G|---------------------|
D|---------------------|
A|---------------------|
E|---------------------|

Bass:

G|-----------------------|
D|-----------------------|
A|-----------------------|
E|-0-1---3-2---5-3---3-5-|

Awesome tune, easy to play.  Listen to the song again to get the timing.    

Added On December 16th, 2013

SHARE

Comments

blog comments powered by Disqus

ADVERTISEMENT