Incantation Tabs

Sempiternal Pandemonium

1 versions

TAB

            Sempiternal Pandemonium Tab by Incantation


                         INCANTATION - SEMPITERNAL PANDEMONIUM
                          From the Album - THE INFERNAL STORM
                             Copyright: NUCLEAR BLAST 2000
                               Version 1.0 - MAR 13, 2002

Transcribed By: James Williams (Inverted)

For Questions, Comments, Newest Version, or Corrections contact
Inverted: at Inverted_one@hotmail.com

Check Out Death8699.com, With More Transcriptions On It:
 http://www.death8699.com

.  - palm mute           /  - slide up to
\  - slide down to       ~  - vibrato
h  - hammer on           b  - Bend
p  - pull off            Suffixes for bend
t  - tap                 f  - full bend    h - half bend
ph - pinched harmonic    q  - quarter bend t - tap bend
*  - see comment         ^  - Hold bend    r release bend
x  - Stuccatto           ~  - vibrato bend
,  - slight palm mute    () - ghost note, sustained note
"  - tremolo note         - Trill

TUNNING "C"F"A#"D#"G"C"

Intro
|----------------------------------------------|
|----------------------------------------------|
|----------------------------------------------|
|--2-------------------------------------------|
|--2-------------------------------------------|
|--0--000000000000-0-0-0-0-0-0-0-0-0-0-0--0----|

Riff 1-A
|----------------------------------------------|
|----------------------------------------------|
|----------------------------------------------|
|------------------------------------55555555--|
|----------------------------6655--------------|
|--22222222665555555533333333----3333----------|

Riff 1-B
|----------------------------------------------|
|----------------------------------------------|
|----------------------------------------------|
|----------------------------------------------|
|----------------------------99------88--------|
|--55555555998888888866666666--886666--665555--|

Riff 1-C
|--------------------------------------------------|
|--------------------------------------------------|
|--------------------------------------------------|
|------------------------------------55555555------|
|----------------------------6655------------6655--|
|--22222222665555555533333333----3333--------------|

Fill 1
|----------------|
|----------------|
|----------------|
|--3-6-5x--6-5x--|
|--3-6-5x--6-5x--|
|--1-6-3x--4-3x--|

Riff 2
|-----------------------------|
|-----------------------------|
|-----------------------------|
|-----------998877------99----|
|---77777777------998877--88--|
|-----------------------------|

Riff 3-A
|------------------------------------------------|
|------------------------------------------------|
|------------------------------------------------|
|------------888888----------------888888--------|
|--7777779999------9999887777778888------999988--|
|------------------------------------------------|

Riff 3-B
|------------------------------------------------|
|------------------------------------------------|
|------------------------------------------------|
|------------------------------------------------|
|------------222222----------------222222--------|
|--0000003333------3333220000002222------333322--|

Riff 5-A
|-------------------------------------------------------|
|-------------------------------------------------------|
|-------------------------------------------------------|
|--2-5-4-6-5-4----------------2-5-4-6-5-4---------------|
|--2-5-4-6-5-4----------------2-5-4-6-5-4---------------|
|--0-3-2-4-3-2-11110000554444-0-3-2-4-3-2-111100004433--|
pm . . . . . .                . . . . . .

Riff 5-B
|-------------------------------|
|-------------------------------|
|-------------------------------|
|-------------------------------|
|-------------------------------|
|-1111000055444411110000443333--|

Riff 6-A
|--------------------------------------------------------------------------|
|--------------------------------------------------------------------------|
|--------------------------------------------------------------------------|
|--2--ph----ph--3-2-6-5-2--ph----ph--3-2-6-5-------------------------------|
|--2--2h3p2-1~--3-2-6-5-2--2h3p2-1~--3-2-6-5-----3333----------------3333--|
|--0------------1-0-4-3-0------------1-0-4-3-0000----3333222200003333------|

Riff 6-B
|--------------------------------|
|--------------------------------|
|--------------------------------|
|--------------------------------|
|------3333----------------3333--|
|--0000----3333222200003333------|

Riff 7
|------------------------------------------------------------------------|
|------------------------------------------------------------------------|
|------------------------------------------------------------------------|
|--8888------------------------------------------------------------------|
|------6666----888877777777----777766666666----666655555555--------------|
|----------9999------------8888------------7777------------666655555555--|

Riff 8
|--------------------------------------------------|
|--------------------------------------------------|
|--------------------------------------------------|
|-------------------------------------9-----7-6----|
|------------------------------10-9-7---7-6-----9--|
|--000000077771010101099999999---------------------|

Riff 9 (Also Solo Riff)
|------------------------------------------------------|
|------------------------------------------------------|
|------------------------------------------------------|
|--2----2--3--2----7---6--5--2----2--3--2----7---6--5--|
|--2----2--3--2----7---6--5--2----2--3--2----7---6--5--|
|--0----0--1--0----5---4--3--0----0--1--0----5---4--3--|

Solo
|--12^----13^12^---17^-16^--10h12h13-10h12h13-10h12h13-10h12h13p10h12h13
|--bf-----bf-bf----bf--bf-----------------------------------------------
|-----------------------------------------------------------------------
|-----------------------------------------------------------------------
|-----------------------------------------------------------------------
|-----------------------------------------------------------------------

p10h12h13p10h12h13p10h12h13p10h12h13p10h12h13p10h12h13p10h12h13-ect...--|
------------------------------------------------------------------------|
------------------------------------------------------------------------|
------------------------------------------------------------------------|
------------------------------------------------------------------------|
------------------------------------------------------------------------|

Riff 9 
|------------------------------------------------------|
|------------------------------------------------------|
|------------------------------------------------------|Gtr I
|--2----2--3--2----7---6--5--2----2--3--2----7---6--5--|
|--2----2--3--2----7---6--5--2----2--3--2----7---6--5--|
|--0----0--1--0----5---4--3--0----0--1--0----5---4--3--|

Riff 10
|------------------------------------------------------|
|------------------------------------------------------|
|------------------------------------------------------|Gtr II
|--------------------4--5------------------------------|
|--------2--1--------2--3--------2--1-----2------------|
|--0--1--------0--1--------0--1--------3-----3--23---|

Killer song!

Check out my other tabs by Incantation, Grave, Deicide, Obituary,
Catastrophic, Six Feet Under and Hypocrisy.    

Added On December 4th, 2013

SHARE

Comments

blog comments powered by Disqus

ADVERTISEMENT