Insane Clown Posse Tabs

I Want My Shit

2 versions

TAB

            I Want My Shit Tab by Insane Clown Posse


ICP, I Want My Shit
-J, goodbreadc@gators.net
Chorus:2X
E---------------------
B---------------------
G---------------------
D---------------------
A-9---7---9-----------
E-7---5---7-----------

E---------------------
B---------------------
G---------------------
D-9---7---9-----------
A-7---5---7-----------
E---------------------

E---------------------
B---------------------
G---------------------
D-555555577777777-----
A-333333355555555-----
E---------------------

E---------------------
B---------------------
G---------------------
D---------------------
A-9999979999979999979-
E-7777757777757777757-    

Added On December 4th, 2013

SHARE

Comments

blog comments powered by Disqus

VERSIONS

ADVERTISEMENT